4/10

DIFFICULTY

STANDARD TUNING

CAPO ON 7TH

Guitar Chord & Songwriting Cheat Sheet

GUITARZERO2HERO FREEBIE:

CHORD & SONGWRITING CHEAT SHEET

MASTER OVER 200+ CHORDS & MORE - YOU'LL ALSO RECEIVE THE LATEST NEWS & UPDATES FROM GUITARZERO2HERO

CHORD SHAPES

Welcome to this Cherry Guitar Tutorial by Harry Styles!

This song is great for beginners who are starting to play acoustic guitar fingericking style.

00:58 MAIN RIFF
07:30 MAIN CHORD PROGRESSION
09:02 SOFT SECTION RIFF
09:22 BRIDGE RIFF
10:05 OUTRO CHORDS
10:47 SONG PLAYTHROUGH DEMONSTRATION

Big thanks to Eric for his vocals on this track, check out his Youtube channel here – https://www.youtube.com/user/EricBenGayomali

Enjoy! Like this #cherry video by #harrystyles and subscribe to the channel for more videos in the future!

-Dave Tran (Your online guitar teacher 😁)

TABS/CHORDS

-----------------------------------
           CAPO ON 7TH
-----------------------------------


[Main Riff] 
   C                                  
e|-3---------3-----0---------0-----|-----------0---------------------| 
B|---------------------------------|-3---------------1---------1-----| 
G|-----0-------0-------0-------0---|-----0-------0-------0-------0---| 
D|---------------------------------|---------------------------------| 
A|-3-------3-------3-------3-------|-3-------3-------3-------3-------| 
E|---------------------------------|---------------------------------| 
   1 e + a 2 e + a 3 e + a 4 e + a   1 e + a 2 e + a 3 e + a 4 e + a 

   C                                                         C/B 
e|-3---------3-----0---------0-----|-----------0---------------------| 
B|---------------------------------|-3---------------1-----------1---| 
G|-----0-------0-------0-------0---|-----0-------0-------0-----------| 
D|---------------------------------|---------------------------------| 
A|-3-------3-------3-------3-------|-3-------3-------3-------2-------| 
E|---------------------------------|---------------------------------| 
   1 e + a 2 e + a 3 e + a 4 e + a   1 e + a 2 e + a 3 e + a 4 e + a 

   Am7                                
e|-3---------3-----0---------0-----|-----------0---------------------| 
B|---------------------------------|-3---------------1---------1-----| 
G|-----0-------0-------0-------0---|-----0-------0-------0-------0---| 
D|---------------------------------|---------------------------------| 
A|-0-------0-------0-------0-------|-0-------0-------0-------0-------| 
E|---------------------------------|---------------------------------|  
   1 e + a 2 e + a 3 e + a 4 e + a   1 e + a 2 e + a 3 e + a 4 e + a 

   Fmaj7 
e|-3---------3-----0---------0-----|-----------0---------------------| 
B|---------------------------------|-3---------------1---------1-----| 
G|-----2-------2-------2-------2---|-----2-------2-------2-------0---| 
D|-3-------3-------3-------3-------|-3-------3-------3-------3-------| 
A|---------------------------------|---------------------------------| 
E|---------------------------------|---------------------------------| 
   1 e + a 2 e + a 3 e + a 4 e + a   1 e + a 2 e + a 3 e + a 4 e + a 

[Chorus]
C                                            C/B
   Don't you call him "baby" We're not talking lately
Am7                                          Fmaj7
   Don't you call him what you used to call me

[Verse 1]
C                                    C/B     Am7
I, I confess I can tell that you are at your best
                            Fmaj7
I'm selfish so I'm hating it
C                                        C/B  Am7
I noticed that there's a piece of you in how   I dress
                   Fmaj7
Take it as a compliment


[Chorus]
C                                            C/B
   Don't you call him "baby" We're not talking lately
Am7                                          Fmaj7
   Don't you call him what you used to call me

[Verse 2]
C
I, I just miss
                        C/B       Am7
I just miss your accent and your friends
                             Fmaj7
Did you know I still talk to them?

[Bridge]
G                                   F        C/E    Dm
Does he take you walking 'round his parents' gallery?

[Chorus]
C                                            C/B
   Don't you call him "baby" We're not talking lately
Am7                                          Fmaj7
   Don't you call him what you used to call me
C                                            C/B
   Don't you call him "baby" We're not talking lately
Am7                                          Fmaj7
   Don't you call him what you used to call me

[Outro]
FM7