3/10

DIFFICULTY

STANDARD

NO CAPO

Guitar Chord & Songwriting Cheat Sheet

GUITARZERO2HERO FREEBIE:

CHORD & SONGWRITING CHEAT SHEET

MASTER OVER 200+ CHORDS & MORE - YOU'LL ALSO RECEIVE THE LATEST NEWS & UPDATES FROM GUITARZERO2HERO

CHORD SHAPES

Welcome to this Falling Tutorial by Harry Styles!
This is a really easy song to play and has an easy lead riff in the bridge section. In the video I’ll teach you how to play the fingerpicking pattern in the studio recording but also easy strummed chords for the beginners out there.

00:54 MAIN CHORD PROGRESSION
02:54 MAIN RIFF
05:29 LEAD RIFF
08:00 SONG PLAYTHROUGH DEMONSTRATION

Big thanks to Eric Ben for his vocals on this track, check out his Youtube channel here – https://www.youtube.com/user/ericbengayomali

Enjoy! Like this #falling video by #harrystyles and subscribe to the channel for more videos in the future!

-Dave Tran (Your online guitar teacher 😁)

TABS/CHORDS

----------------------------------------------------------------------
[Fingerpicking] 
   E                                 C#m
e|---------------------------------|---------------------------------|
B|---------0---------------0-------|---------5---------------5-------|
G|-----1-----1---1-----1-----1---1-|-----6-----6---6-----6-----6---6-|
D|---2---2-----2-----2---2-----2---|---6---6-----6-----6---6-----6---|
A|---------------------------------|-4---------------4---------------|
E|-0---------------0---------------|---------------------------------|
   1 e + a 2 e + a 3 e + a 4 e + a   1 e + a 2 e + a 3 e + a 4 e + a  
   B                       G#m       A
e|---------------------------------|---------------------------------|
B|---------4-----------------------|---------2---------------2-------|
G|-----4-----4---4-----4-------4---|-----2-----2---2-----2-----2---2-|
D|---4---4-----4-----4---4---4---4-|---2---2-----2-----2---2-----2---|
A|-2---------------2---------------|-0---------------0---------------|
E|-------------------------4-------|---------------------------------|
   1 e + a 2 e + a 3 e + a 4 e + a   1 e + a 2 e + a 3 e + a 4 e + a 

[Intro] 
E  C#m  Bsus4  G#m   Asus2

[Verse 1] 
           E
I'm in my bed 
               C#m
And you're not here 
            Bsus4                                  G#m       Asus2
And there's no one to blame but the drink in my wandering hands 
               E
Forget what I said 
                 C#m
It's not what I meant 
       Bsus4                                     G#m          Asus2
And I can't take it back, I can't unpack the baggage you left

[Chorus] 
           E
What am I now? What am I now? 
            C#m
What if I'm someone I don't want around? 
    Bsus4                             G#m     Asus2
I'm falling again, I'm falling again, I'm fallin' 
             E
What if I'm down? What if I'm out? 
             C#m
What if I'm someone you won't talk about? 
    Bsus4                             G#m     Asus2
I'm falling again, I'm falling again, I'm fallin'

[Verse 2] 
              E                      C#m
You said you care, and you missed me too 
     Bsus4                               G#m        Asus2
And I'm well aware I write too many songs about you 
                  E          C#m
And the coffee's out at the Beachwood Cafe 
        Bsus4                                       G#m           Asus2
And it kills me 'cause I know we've ran out of things we can say

[Chorus] 
           E
What am I now? What am I now? 
            C#m
What if I'm someone I don't want around? 
    Bsus4                             G#m     Asus2
I'm falling again, I'm falling again, I'm fallin' 
             E
What if I'm down? What if I'm out? 
            C#m
What if I'm someone you won't talk about? 
            Bsus4                     G#m     Asus2
I'm falling again, I'm falling again, I'm fallin'

[Bridge] 
   Asus2                                           E    C#m  B  G#m  Asus2
And I get the feeling that you'll never need me again

[Chorus] 
           E
What am I now? What am I now? 
               C#m
What if you're someone I just want around? 
    Bsus4                            G#m      Asus2
I'm falling again, I'm falling again, I'm fallin' 
             E
What if I'm down? What if I'm out? 
            C#m
What if I'm someone you won't talk about? 
   Bsus4                            G#m      Asus2
I'm falling again, I'm falling again, I'm fallin'