3/10

DIFFICULTY

STANDARD TUNING

CAPO ON 4TH

Guitar Chord & Songwriting Cheat Sheet

GUITARZERO2HERO FREEBIE:

CHORD & SONGWRITING CHEAT SHEET

MASTER OVER 200+ CHORDS & MORE - YOU'LL ALSO RECEIVE THE LATEST NEWS & UPDATES FROM GUITARZERO2HERO

CHORD SHAPES

Welcome to this Tequila Guitar Tutorial by Dan + Shay!
This is a great song for beginners starting out on the acoustic guitar and really great easy listening country tune. It’s also got a nice little solo for the beginners who want to try learning a bit of lead playing.

00:53 MAIN CHORD PROGRESSION
03:04 PRECHORUS CHORDS
03:10 BRIDGE CHORDS
03:34 SOLO RIFF
06:05 SONG PLAYTHROUGH DEMONSTRATION

Big thanks to Eric Ben for his vocals on this track, check out his Youtube channel here – https://www.youtube.com/user/ericbengayomali

Enjoy! Like this #tequila video by #danandshay and subscribe to the channel for more videos in the future!

-Dave Tran (Your online guitar teacher ūüėĀ)

TABS/CHORDS

-----------------------------------
           CAPO ON 4TH
-----------------------------------


[VERSE 1] 
Cadd9 - G - D - Em7
I can still shut down a party
I can hang with anybody
I can drink whiskey and red wine
Champagne all night
Little Scotch on the rocks and I'm fine, I'm fine


[CHORUS] 
Cadd9 - G - D - Em7
But when I taste tequila, baby I still see ya
Cutting up the floor in a sorority t-shirt
The same one you wore when we were
Sky high in Colorado, your lips pressed against the bottle
Swearing on a bible, baby, I'd never leave ya
I remember how bad I need ya, when I taste Tequila
When I taste Tequila


[VERSE 2] 
Cadd9 - G - D - Em7
I can kiss somebody brand new
And not even think about you
I can show up to the same bar
Hear the same songs in my car
Baby, your memory, it only hits me this hard


[CHORUS] 
Cadd9 - G - D - Em7
When I taste Tequila, baby I still see ya
Cutting up the floor in a sorority t-shirt
The same one you wore when we were
Sky high in Colorado, your lips pressed against the bottle
Swearing on a bible, baby, I'd never leave ya
I remember how bad I need ya, when I taste Tequila
When I taste Tequila


[SOLO]
e|------------------|--------------------|-------------2/3-2-|
B|----------------3-|-3h5--5b-3-----3---3|-3-----------------|
G|-----------0-2/4--|--------------------|---0-2-2/4---------|
D|------------------|--------------------|-------------------|
A|------------------|--------------------|-------------------|
E|------------------|--------------------|-------------------|
   1 + 2 + 3 + 4  +   1  + 2 + 3 + 4 +     1 + 2 + 3 + 4 +    

e|--------------------|------------------|
B|-3/5---5b-3-----3--3|-3----------------|
G|--------------------|---2/4-2-0--------|
D|--------------------|------------------|
A|--------------------|------------------|
E|--------------------|------------------|
   1   + 2  + 3 + 4 +   1 +   2 + 3 + 4 +


[BRIDGE] 
Cadd9 - Em7 - Cadd9 - D
I ain't even drunk, I ain't even drunk
And I'm thinking
How I need your love, how I need your love
Yeah, it sinks in


[CHORUS] 
Cadd9 - G - D - Em7
When I taste Tequila, baby I still see ya
Sorority t-shirt, the same one you wore when we were
Sky high in Colorado, your lips pressed against the bottle
Swearing on a bible, baby, I'd never leave ya
I remember how bad I need ya, when I taste Tequila
When I taste Tequila
When I taste Tequila
When I taste Tequila