4/10

DIFFICULTY

STANDARD

CAPO ON 1ST

Guitar Chord & Songwriting Cheat Sheet

GUITARZERO2HERO FREEBIE:

CHORD & SONGWRITING CHEAT SHEET

MASTER OVER 200+ CHORDS & MORE - YOU'LL ALSO RECEIVE THE LATEST NEWS & UPDATES FROM GUITARZERO2HERO

Welcome to this Slide Guitar Tutorial by Goo Goo Dolls!
This is another awesome 90’s throwback and is super fun to play on the acoustic. The intro riff is my favourite part and is a pretty recognisable riff. Johnny from the Goo Goo Dolls actually plays this in an alternate tuning but for simplicity and ease I’ll teach you how to play it in standard tuning.

00:53 INTRO RIFF
02:33 VERSE CHORDS
03:39 GUITAR RIFF
04:30 CHORUS CHORDS
05:24 BRDIGE CHORDS
06:41 SONG PLAYTHROUGH DEMONSTRATION

Big thanks to Eric Ben for his vocals on this track, check out his Youtube channel here – https://www.youtube.com/user/ericbengayomali

Enjoy! Like this #slide video by #googoodolls and subscribe to the channel for more videos in the future!

-Dave Tran (Your online guitar teacher ūüėĀ)

TABS/CHORDS


[Intro]
e|---------------------------------|---------------------------------|
B|---------3-------------3---------|---------3-----------0-------0---|
G|-----0-------0-----0-------0-----|-----0-------0-----0-------------|
D|-2-------------0-------------0---|---------------------------------|
A|---------------------------------|-3-------------------------------|
E|---------------------------------|---------------3---------2-------|
   1 e + a 2 e + a 3 e + a 4 e + a   1 e + a 2 e + a 3 e + a 4 e + a 


[Verse 1]
Em                      D
Could you whisper in my ear
                    Cadd9
The things you wanna feel
I'd give you anythin'
To feel it comin'
Em                    D
Do you wake up on your own
                    Cadd9
And wonder where you are?
You live with all your faults
 

[Riff]
e|----------0-------|
B|-----3----3-------|
G|----0-0---0-------|
D|-0h2---0--2-------|
A|----------3-------|
E|------------------|
I wanna wake up where you are
I won't say anything at all


[Chorus]
                  Cadd9  G
So why don't you slide
                           D
Yeah, I'm gonna let it slide

[Verse 2]
Em                          D
Don't you love the life you killed?
                     Cadd9
The priest is on the phone
Your father hit the wall
Your ma disowned you
Em                      D
Don't supposed I'll ever know
                     Cadd9
What it means to be a man
It's somethin' I can't change
I'll live around it
 

[Riff]
e|----------0-------|
B|-----3----3-------|
G|----0-0---0-------|
D|-0h2---0--2-------|
A|----------3-------|
E|------------------|
I wanna wake up where you are
I won't say anything at all

 
[Chorus]
                  Cadd9  G
So why don't you slide
                           D
Yeah, I'm gonna let it slide

[Bridge]
   Cadd9           G
And I'll do anything
         Cadd9              G
You ever dreamed to be complete
      Cadd9              G            D
Little pieces of the nothin that fall
    Em
Oh, May
               D
Put your arms around me
          Cadd9 
What you feel is what you are
             G/B
And what you are is beautiful
   Cadd9 
Oh, May
                 D
Do you wanna get married 
       C
Or run away?