2.5/10

DIFFICULTY

STANDARD

NO CAPO

Guitar Chord & Songwriting Cheat Sheet

GUITARZERO2HERO FREEBIE:

CHORD & SONGWRITING CHEAT SHEET

MASTER OVER 200+ CHORDS & MORE - YOU'LL ALSO RECEIVE THE LATEST NEWS & UPDATES FROM GUITARZERO2HERO

CHORD SHAPES

Welcome to this No Time To Die Guitar Tutorial by Billie Eilish! This song is the lead track off the upcoming James Bond movie of the same name and I can’t wait to see it. They’ve done such a great choice picking Billie & Finneas to write the soundtrack song. This haunting song is quite simple to play and in the tutorial I’ll also teach you a cool fingerpicked intro to play.

Big thanks to Nadda Mercenary for her vocals on this track, check out her of this song on her Youtube channel here – https://www.youtube.com/watch?v=USQScBjagow

Enjoy! Like this #notimetodie video by #billieeilish and subscribe to the channel for more videos in the future!

-Dave Tran (Your online guitar teacher 😁)


[Intro Riff]
   Em                C                 A                 B
e|-------------7---|-------------7---|-------------7---|-----------------|
B|-----7---8-------|-----7---8-------|-----7---8-------|---------7-------|
G|-9---------------|-9---------------|-9---------------|-8---9-----------|
D|-----------------|-----------------|-----------------|-----------------|
A|-----------------|-----------------|-0-0---0---0---0-|-----------------|
E|-0-0---0---0---0-|-8-8---8---8---8-|-----------------|-7-7---7---------|
   1 + 2 + 3 + 4 +   1 + 2 + 3 + 4 +   1 + 2 + 3 + 4 +   1 + 2 + 3 + 4 +
   Em                C                 A                 B
e|-------------7---|-------------7---|-------------7---|-----------------|
B|-----7---8-------|-----7---8-------|-----7---8-------|-----------------|
G|-9---------------|-9---------------|-9---------------|-8---------------|
D|-----------------|-----------------|-----------------|-----------------|
A|-----------------|-----------------|-0-0---0---0---0-|-----------------|
E|-0-0---0---0---0-|-8-8---8---8---8-|-----------------|-7---------------|
   1 + 2 + 3 + 4 +   1 + 2 + 3 + 4 +   1 + 2 + 3 + 4 +   1 + 2 + 3 + 4 +

[Intro]
 
| Em | C | A | B | x2
 
[Verse 1]
Em  C           Am
I  should have known
Em  C      Am
I'd leave alone
Em   C        Am
Just goes to show
         C
That the blood you bleed
                       B
Is just the  blood  you owe
 
Em  C        Am
We  were  a pair
Em    C         Am
But I saw you there
Em  C         Am
Too  much to bear
            C                                B
You were my life, but life is far away from fair

[Prechorus]
       C
Was I stupid to love you?
        Em
Was I reckless to help?
         Am                  B
Was it obvious to everybody else?
 
 
[Chorus]
           Em  C       Am
That I'd fallen for a lie
          Em  C        Am
You were never on  my side
        Em            C
Fool me once, fool me twice
          Am
Are you death or paradise?
            Em   C      Am
Now you'll never see me cry
                        
There's just no time to die
 
[Interlude]
 
| Em | C | A | B |
 
 
[Verse 2]
Em C          Am
I  let it burn
 Em        C         Am
You're no longer my concern
 Em   C             Am
Faces from my past return
  C                    B
Another lesson yet to learn
 
 
 
[Chorus]
           Em  C       Am
That I'd fallen for a lie
          Em  C        Am
You were never on  my side
        Em            C
Fool me once, fool me twice
          Am
Are you death or paradise?
            Em   C      Am
Now you'll never see me cry
                        
There's just no time to die
 
 
[Refrain]
| Em | C | A | B | x2
 
 
[Outro]
        Em            C 
Fool me once, fool me twice
         A
Are you death or paradise?
            Em   Cm     A
Now you'll never see me cry
                         Emaj7sus2
There's just no time to die