4/10

DIFFICULTY

STANDARD

CAPO ON 3RD

Guitar Chord & Songwriting Cheat Sheet

GUITARZERO2HERO FREEBIE:

CHORD & SONGWRITING CHEAT SHEET

MASTER OVER 200+ CHORDS & MORE - YOU'LL ALSO RECEIVE THE LATEST NEWS & UPDATES FROM GUITARZERO2HERO

CHORD SHAPES

Welcome to this Kiss Me Guitar Tutorial by Sixpence None The Richer! It’s been over 20 years since the release of this song but it has lasted as a beautiful acoustic track for every acoustic player to learn. The intro strumming and chord progression are defining and makes this song recognizable from the very first minute of hearing it

Big thanks to Amanda for her vocals on this track, check out her Youtube channel here – https://www.youtube.com/user/XxMissAmandaLeexX

Enjoy! Like this #kissme video by #sixpencenonethericher and subscribe to the channel for more videos in the future!

-Dave Tran (Your online guitar teacher 😁)



[Intro]
C      Cmaj7     C7     Cmaj7     x2
 
 
[Verse 1]
C      Cmaj7
Kiss me out of the bearded barley.
C7     Cmaj7
Nightly, beside the green, green grass.
C            Cmaj7
Swing, swing, swing the spinning step.
C7                              F
You wear those shoes and I will wear that dress.
 
  
[Chorus]
    Dm   G  C           Am
Oh, kiss me beneath the milky twilight.
Dm   G  C          C7
Lead me out on the moonlit floor.
Dm        G
Lift your open hand
C             C/B               Am7             G
Strike up the band and make the fireflies dance, silver moon's
Fmaj7         Gadd11 G
sparkling.             So kiss me.
 
 
[Interlude]
C      Cmaj7     C7     Cmaj7
 
 
[Verse 2]
C       Cmaj7
Kiss me down by the broken tree house.
C7       Cmaj7
Swing me upon its hanging tire.
C             Cmaj7
Bring, bring, bring your flowered hat.
C7                                            F
We'll take the trail marked on your father's map.
 
  
[Chorus]
    Dm   G  C           Am
Oh, kiss me beneath the milky twilight.
Dm   G  C          C7
Lead me out on the moonlit floor.
Dm        G
Lift your open hand
C             C/B               Am7             G
Strike up the band and make the fireflies dance, silver moon's
Fmaj7          Gadd11 G
sparkling.              So kiss me.
 
 
  
[Break]
| C | Cmaj7 | C7 | Cmaj7 |
 
[Bridge]
| Dm G | C Am |
| Dm G | C C7 |
 
[Solo]
e|---5---5-------3---|-------------------|---5---5-------3---|-----------------|
B|---5h6-5-3---3-3-3-|-5h6-5-------------|---5h6-5-3---3-3-3-|-----------------|
G|---7---7-4-4-4---4-|-------7-5---------|---7---7-4-4-4---4-|-5-5-7-7-9-------|
D|-----------5-------|-----------7-------|-----------5-------|-x-x-x-x-x-------|
A|-------------------|-------------------|-------------------|-3-3-5-5-7-------|
E|-------------------|-------------------|-------------------|-----------------|
   1 +   2 + 3 + 4 +   1   + 2 + 3 + 4 +   1 +   2 + 3 + 4 +   1 + 2 + 3 + 4 +  


  
[Chorus]
Dm   G  C           Am
Kiss me beneath the milky twilight.
Dm   G  C          C7
Lead me out on the moonlit floor.
Dm        G
Lift your open hand
C             C/B               Am7             G
Strike up the band and make the fireflies dance, silver moon's
Fmaj7         Gadd11 G
sparkling.              So kiss me.
 
  
[Outro]
C     Cmaj7    C7    Cmaj7
                          So kiss me
C     Cmaj7    C7    Cmaj7
                          So kiss me
C     Cmaj7    C7    Cmaj7
                          So kiss me
C     Cmaj7    C7    Cmaj7
                          So kiss me
 
[Outro Lead]
e|-----------------|-----------------|-----------------|----------------|
B|-5-----------8-5-|-------------8-5-|-------------5---|----------------|
G|---------7-------|---------7-------|---------7-------|----------------|
D|-----------------|-----------------|---------------5-|----------------|
A|-----------------|-----------------|-----------------|----------------|
E|-----------------|-----------------|-----------------|----------------|
   1 + 2 + 3 + 4 +   1 + 2 + 3 + 4 +   1 + 2 + 3 + 4 +   1 + 2 + 3 + 4 +