3.5/10

DIFFICULTY

STANDARD

CAPO ON 6TH

Guitar Chord & Songwriting Cheat Sheet

GUITARZERO2HERO FREEBIE:

CHORD & SONGWRITING CHEAT SHEET

MASTER OVER 200+ CHORDS & MORE - YOU'LL ALSO RECEIVE THE LATEST NEWS & UPDATES FROM GUITARZERO2HERO

CHORD SHAPES

Welcome to this One Man Band Guitar Tutorial by Old Dominion! I’m always a big fan of new country hits and this is one of my favourites for a while now. It’s got amazing fingerpicked guitar work and a awesome little solo. It’s a very melodic song and I’d expect most people to have a lot of fun learning and playing this!

Big thanks to Eric Ben for his vocals on this track, check out his Youtube channel here – https://www.youtube.com/user/ericbengayomali

Enjoy! Like this #onemanband video by #olddominion and subscribe to the channel for more videos in the future!

-Dave Tran (Your online guitar teacher ūüėĀ)



[VERSE] 
e|---------------------------------|---------------------------0-----|
B|-----5---5-----5-----5---5-------|-----5---5-----5-----5---5-------|
G|-------0-----0---------0-----0---|---5-------5-------5-----------0-|
D|---5-------5-------5-------5---5-|-3-----3-----3---3-----3-----3---|
A|-3---------------3---------------|---------------------------------|
E|---------------------------------|---------------------------------|
   1 e + a 2 e + a 3 e + a 4 e + a   1 e + a 2 e + a 3 e + a 4 e + a 

[PRECHORUS]
   Dm              Am                Dm              A7sus2
e|---------0h1---------------------|---------0h1---------------------|
B|-------3-----3-----------1-------|-------3-----3-------0-------1---|
G|-----2---------2---------2-------|-----2---------2-----0-------0---|
D|-0-------------------2-----------|-0-------------------------------|
A|-----------------0---------------|-----------------0-------0-------|
E|---------------------------------|---------------------------------|
   1 e + a 2 e + a 3 e + a 4 e + a   1 e + a 2 e + a 3 e + a 4 e + a 

   Dm
e|---------0h1-----3---------------|---------------------------------|
B|-------3-------------------------|---------------------------------|
G|-----2-------2/4-----------------|---------------------------------|
D|-0-------------------------------|---------------------------------|
A|---------------------------------|---------------------------------|
E|---------------------------------|---------------------------------|
   1 e + a 2 e + a 3 e + a 4 e + a   1 e + a 2 e + a 3 e + a 4 e + a 

[CHORUS]
   F               G                 C       G/B     Am
e|-----1---------------3-----------|-0-----------------------0-------|
B|-----1---x---1-------3---x---3---|---------3-------1---------1-----|
G|-------2-x---0---------0-x---0---|-----------------------------2---|
D|-3-------x---------------x-------|-----------------------2-------2-|  x3
A|---------x---------------x-------|-3-------2-------0---------------|
E|-----------------3---------------|---------------------------------|
   1 e + a 2 e + a 3 e + a 4 e + a   1 e + a 2 e + a 3 e + a 4 e + a 

   F       
e|-----1---------------------------|---------------------------------|
B|-----1---x---1---0---------------|---------------------------------|
G|-------2-x---2---0---------------|---------------------------------|
D|-3-------x-----------------------|---------------------------------|
A|---------x-----------------------|---------------------------------|
E|---------------------------------|---------------------------------|
   1 e + a 2 e + a 3 e + a 4 e + a   1 e + a 2 e + a 3 e + a 4 e + a 

[SOLO RHYTHM]
   F               G                 C       G/B     Am
e|-----1---------------3-----------|-0-----------------------0-------|
B|-----1---x---1-------3---x---3---|---------3-------1---------1-----|
G|-------2-x---0---------0-x---0---|-----------------------------2---|
D|-3-------x---------------x-------|-----------------------2-------2-|  x2
A|---------x---------------x-------|-3-------2-------0---------------|
E|-----------------3---------------|---------------------------------|
   1 e + a 2 e + a 3 e + a 4 e + a   1 e + a 2 e + a 3 e + a 4 e + a 

[BRIDGE]
   Fmaj7           G                 Am7
e|-0---------------3---------------|---------------------------------|
B|-1---------------0---------------|---------1-----------------------|
G|-2---------------4---------------|-----0-------0-------0-------0---|
D|-3---------------5---------------|-2---------------3-------2-------|
A|---------------------------------|---------------------------------|
E|---------------------------------|---------------------------------|
   1 e + a 2 e + a 3 e + a 4 e + a   1 e + a 2 e + a 3 e + a 4 e + a 

   Dm                                G7sus4
e|-----------------0h1-------------|---------------------------------|
B|---------3-----------------------|-------------1---0---------------|
G|-----2-------2-------------------|---------0-------0---------------|
D|-0-------------------------------|-----3---------------------------|
A|---------------------------------|---------------------------------|
E|---------------------------------|-3-------------------------------|
   1 e + a 2 e + a 3 e + a 4 e + a   1 e + a 2 e + a 3 e + a 4 e + a 

[SOLO]
e|-------------5h6p5\3-----3h5p3p0-|---------------------------------|
B|---------------------------------|-----3h5p3\1-3-1-----------------|
G|---------------------------------|-----------------2-0h2-----------|
D|---------------------------------|---------------------------------|
A|---------------------------------|---------------------------------|
E|---------------------------------|---------------------------------|

e|---------------------------------|---------------------------------|---|
B|-----------------3---3---3---3---|-1-------1-----------------------|---|
G|-------------0---2h4-2---2h4-2---|-0h2-----0-------5-----------4---|-5-|
D|-----2h3-------------------------|---------------------------------|---|
A|---------------------------------|-------------5/7---7\5---3-------|---|
E|---------------------------------|---------------------------------|---|