3.5/10

DIFFICULTY

STANDARD TUNING

CAPO ON 4th

Guitar Chord & Songwriting Cheat Sheet

GUITARZERO2HERO FREEBIE:

CHORD & SONGWRITING CHEAT SHEET

MASTER OVER 200+ CHORDS & MORE - YOU'LL ALSO RECEIVE THE LATEST NEWS & UPDATES FROM GUITARZERO2HERO

CHORD SHAPES

Welcome to this Eraser Guitar Tutorial by Ed Sheeran! This is a super cool track which is a lot of a fun to play, it is also a great starting point for those trying to get into looping with a loop pedal. There’s a rhythm section and a lead section and combined with a looper you can get a really cool sound like Ed Sheeran does live. The looper I use is the Boss RC-3 which is a great looping pedal for beginners.

 

Big thanks to Toogla for his vocals on this track, check out his Youtube channel here – https://www.youtube.com/channel/UCHJ7U05eNnWVNKlfwJyKtGQ

 

Enjoy! Like this #eraser video by #edsheeran and subscribe to the channel for more videos in the future!

 

-Dave Tran (Your online guitar teacher 😁)


TABS/CHORDS

----------------------------------------------
            CAPO ON 4TH FRET
----------------------------------------------

[Chords]

   Em                            C                D
e|---------x---------------x-----0|-0-0-----x-----2-2-2-----x------|
B|---------x---------------x-----1|-1-1-----x-----3-3-3-----x------|
G|---------x-----0---------x-----0|-0-0-----x-----2-2-2-----x------|
D|-2-2-----x-----2---------x-----2|-2-2-----x-----0-0-0-----x------|
A|-2-2-----x-----2---------x-----3|-3-3-----x---------------x------|
E|-0-0-----x-----0---------x------|---------x---------------x---3--|
   1 e + a 2 e + a 3 e + a 4 e + a  1 e + a 2 e + a 3 e + a 4 e + a 

[Chords For Looping]
   Em                            C                D
e|---------x---------------x-----0|-0-0-----x-----2-2-2-----x------|
B|---------x---------------x-----1|-1-1-----x-----3-3-3-----x------|
G|---------x---------------x-----0|-0-0-----x-----2-2-2-----x------|
D|-2-2-----x-----2---------x-----2|-2-2-----x-----0-0-0-----x------|
A|-2-2-x-x-x-x-x-2-x-x-x-x-x-x-x-3|-3-3-x-x-x-x-x-------x-x-x-x----|
E|-0-0-x-x-x-x-x-0-x-x-x-x-x-x-x--|-----x-x-x-x-x-------x-x-x-x-3--|
   1 e + a 2 e + a 3 e + a 4 e + a  1 e + a 2 e + a 3 e + a 4 e + a 

[Lead]
e|--------------------------------|---------------------------------|
B|-----7h8p7-----8-------7--------|-------5p3-------------7p5-------|
G|-----------9p7-9-------7--------|-----------5---------------7-----|
D|--------------------------------|---------------------------------|
A|--------------------------------|---------------------------------|
E|--------------------------------|---------------------------------|
   1 e + a 2 e + a 3 e + a 4 e + a  1 e + a 2 e + a 3 e + a 4 e + a 


[Prechorus]
| Cadd9 | G | D | A7sus4 |
| Cadd9 | G | D | B7 |