3/10

DIFFICULTY

STANDARD TUNING

NO CAPO

Guitar Chord & Songwriting Cheat Sheet

GUITARZERO2HERO FREEBIE:

CHORD & SONGWRITING CHEAT SHEET

MASTER OVER 200+ CHORDS & MORE - YOU'LL ALSO RECEIVE THE LATEST NEWS & UPDATES FROM GUITARZERO2HERO

Welcome to this Boulevard Of Broken Dreams Electric Guitar Tutorial by Green Day! This song has become an all time classic is is from arguably one of the best rock albums of all time. In this particular lesson I’ll teach you how to play all the full band guitar parts including the lead and solo.

If you’d like to learn how to play an acoustic version of this, then check out my acoustic lesson here – http://bit.ly/2PqXxA3

Big thanks to Eric Ben for his vocals on this track, check out his Youtube channel here – https://www.youtube.com/user/ericbengayomali

Enjoy! Like this #boulebardofbrokendreams video by #greenday and subscribe to the channel for more videos in the future!

-Dave Tran (Your online guitar teacher ūüėĀ)


[INTRO TREM]
e|-----------------|-----------------|
B|-----------------|-----------------|
G|-----------------|-----------------|
D|-3---3---6---6---|-13--13--8---8---|
A|-3---3---6---6---|-13--13--8---8---|
E|-1---1---4---4---|-11--11--6---6---|
   1 + 2 + 3 + 4 +   1 + 2 + 3 + 4 +   

[VERSE CHORDS]
| Fm | G# | Eb | Bb |

[BREAK RIFF]
e|----------------------------|-------------------------|
B|-------8--9--------11/13-11-|-------8--9--------------|
G|----------------------------|-------------------------|
D|----------------------------|-------------------------|
A|----------------------------|-------------------------|
E|----------------------------|-------------------------|
   1  +  2  +  3  +  4     +    1  +  2  +  3  +  4  +   

[PRECHORUS LEAD IN]
e|-----------------|
B|-----------------|
G|-----------3-3-5-|
D|-----------3-3-5-|
A|-----------1-1-3-|
E|-----------------|
   1 + 2 + 3 + 4 +   

[CHORUS]
e|-----------------|-----------------|
B|-----------------|-----------------|
G|-6-6-6-6---------|-8-8-8-8---------|
D|-6-6-6-6-6-6-6-6-|-8-8-8-8-3-3-3-3-| X3
A|-4-4-4-4-6-6-6-6-|-6-6-6-6-3-3-3-3-|
E|---------4-4-4-4-|---------1-1-1-1-|
  1 + 2 + 3 + 4 +   1 + 2 + 3 + 4 +   
 
e|-----------------|-----------------|
B|-----------------|-----------------|
G|-6-6-6-6---------|-5-5-5-5-5-------|
D|-6-6-6-6-6-6-6-6-|-5-5-5-5-5-------|
A|-4-4-4-4-6-6-6-6-|-3-3-3-3-3-------|
E|---------4-4-4-4-|-----------------|
   1 + 2 + 3 + 4 +   1 + 2 + 3 + 4 +   

[VERSE CHORDS]
| Fm | G# | Eb | Bb |

[BREAK RIFF]
e|----------------------------|-------------------------|
B|-------8--9--------11/13-11-|-------8--9--------------|
G|----------------------------|-------------------------|
D|----------------------------|-------------------------|
A|----------------------------|-------------------------|
E|----------------------------|-------------------------|
   1  +  2  +  3  +  4     +    1  +  2  +  3  +  4  +   
[PRECHORUS LEAD IN]
e|-----------------|
B|-----------------|
G|-----------3-3-5-|
D|-----------3-3-5-|
A|-----------1-1-3-|
E|-----------------|
   1 + 2 + 3 + 4 +   

[CHORUS]
e|-----------------|-----------------|
B|-----------------|-----------------|
G|-6-6-6-6---------|-8-8-8-8---------|
D|-6-6-6-6-6-6-6-6-|-8-8-8-8-3-3-3-3-| X3
A|-4-4-4-4-6-6-6-6-|-6-6-6-6-3-3-3-3-|
E|---------4-4-4-4-|---------1-1-1-1-|
  1 + 2 + 3 + 4 +   1 + 2 + 3 + 4 +   
 
e|-----------------|-----------------|
B|-----------------|-----------------|
G|-6-6-6-6---------|-5-5-5-5-5-------|
D|-6-6-6-6-6-6-6-6-|-5-5-5-5-5-------|
A|-4-4-4-4-6-6-6-6-|-3-3-3-3-3-------|
E|---------4-4-4-4-|-----------------|
   1 + 2 + 3 + 4 +   1 + 2 + 3 + 4 +   

[VERSE CHORDS]
| Fm | G# | Eb | Bb |

[PRECHORUS LEAD IN]
e|-----------------|
B|-----------------|
G|-----------3-3-5-|
D|-----------3-3-5-|
A|-----------1-1-3-|
E|-----------------|
   1 + 2 + 3 + 4 +   

[SOLO CHORDS]
e|-----------------|-----------------|    
B|-----------------|-----------------|     
G|-6-6-6-6---------|-8-8-8-8---------|     
D|-6-6-6-6-6-6-6-6-|-8-8-8-8-3-3-3-3-| X2  
A|-4-4-4-4-6-6-6-6-|-6-6-6-6-3-3-3-3-|    
E|---------4-4-4-4-|---------1-1-1-1-|     
   1 + 2 + 3 + 4 +   1 + 2 + 3 + 4 +        
 
e|-----------------|-----------------|
B|-----------------|-----------------|
G|-6-6-------------|-8-8-8-8---------|
D|-6-6-----6-6-----|-8-8-8-8-3-3-3-3-| 
A|-4-4-----6-6-----|-6-6-6-6-3-3-3-3-|
E|---------4-4-----|---------1-1-1-1-|
   1 + 2 + 3 + 4 +   1 + 2 + 3 + 4 +   


e|-----------------|-----------------|-----------------|
B|-----------------|-----------------|-----------------|
G|-6-6-------------|-5-5-5-5-5-5-5-5-|-5-5-5-5-5-------|
D|-6-6-----6-6-----|-5-5-5-5-5-5-5-5-|-5-5-5-5-5-------|
A|-4-4-----6-6-----|-3-3-3-3-3-3-3-3-|-3-3-3-3-3-------|
E|---------4-4-----|-----------------|-----------------|
   1 + 2 + 3 + 4 +   1 + 2 + 3 + 4 +   1 + 2 + 3 + 4 +   

[SOLO]
e|-------------------------------------------------|\
B|-------------------------------------------------| \
G|-11-11-11-11-12-12-13-13-13-13-13-13/17-17-15-15-|  \
D|-------------------------------------------------|   |
A|-8--8--8--8--10-10-11-11-11-11-11-11/15-15-13-13-|   |
E|-------------------------------------------------|   |       
   1  e  +  a  2  e  +  a  3  e  +  a  4  e  +  a      | 
                                                       |   X3       
e|-------------------------------------------------|   |
B|-------------------------------------------------|   |
G|-15-15-15-15-12-12-13-13-13-13-13-13-13-13-13-13-|   |
D|-------------------------------------------------|  /        
A|-13-13-13-13-10-10-11-11-11-11-11-11-11-11-11-11-| /
E|-------------------------------------------------|/
   1  e  +  a  2  e  +  a  3  e  +  a  4  e  +  a 

e|-------------------------------------------------|
B|-------------------------------------------------|
G|-11-11-11-11-12-12-13-13-13-13-13-13/17-17-15-15-|
D|-------------------------------------------------|
A|-8--8--8--8--10-10-11-11-11-11-11-11/15-15-13-13-|
E|-------------------------------------------------|
   1  e  +  a  2  e  +  a  3  e  +  a  4  e  +  a    

e|-------------------------------------------------|
B|-------------------------------------------------|
G|-17-17-17-17-17-17-17-17-17-17-17-17-17-17-17-17-|
D|-------------------------------------------------|  
A|-15-15-15-15-15-15-15-15-15-15-15-15-15-15-15-15-|
E|-------------------------------------------------|
1	e  +  a  2  e  +  a  3  e  +  a  4  e  +  a   

e|-------------------------------------------------|
B|-------------------------------------------------|
G|-17-17-17-17-17-17-17-17-17----------------------|
D|-------------------------------------------------| 
A|-15-15-15-15-15-15-15-15-15----------------------|
E|-------------------------------------------------|
   1  e  +  a  2  e  +  a  3  e  +  a  4  e  +  a   

[VERSE CHORDS]
| Fm | G# | Eb | Bb |

[PRECHORUS LEAD IN]
e|-----------------|
B|-----------------|
G|-----------3-3-5-|
D|-----------3-3-5-|
A|-----------1-1-3-|
E|-----------------|
   1 + 2 + 3 + 4 +   

[LAST CHORUS]
e|-----------------|-----------------|
B|-----------------|-----------------|
G|-6-6-6-6---------|-8-8-8-8---------|
D|-6-6-6-6-6-6-6-6-|-8-8-8-8-3-3-3-3-| X3
A|-4-4-4-4-6-6-6-6-|-6-6-6-6-3-3-3-3-|
E|---------4-4-4-4-|---------1-1-1-1-|
  1 + 2 + 3 + 4 +   1 + 2 + 3 + 4 +   
 
e|-----------------|-----------------|-----------------|
B|-----------------|-----------------|-----------------|
G|-6-6-6-6---------|-5-5-5-5-5-5-5-5-|-5-5-5-5-5-5-5-5-|
D|-6-6-6-6-6-6-6-6-|-5-5-5-5-5-5-5-5-|-5-5-5-5-5-5-5-5-|
A|-4-4-4-4-6-6-6-6-|-3-3-3-3-3-3-3-3-|-3-3-3-3-3-3-3-3-|
E|---------4-4-4-4-|-----------------|-----------------|
   1 + 2 + 3 + 4 +   1 + 2 + 3 + 4 +   1 + 2 + 3 + 4 +   

[OUTRO]
e|-----------------|-----------------|-----------------|
B|-----------------|-----------------|-----------------|
G|---------6---6-6-|-8---8-8-7---7-7-|-----------------|
D|-3---3-3-6---6-6-|-8---8-8-7---7-7-|-6---6-6-2---2-2-| X3
A|-3---3-3-4---4-4-|-6---6-6-5---5-5-|-6---6-6-2---2-2-|
E|-1---1-1---------|-----------------|-4---4-4-0---0-0-|
   1 + 2 + 3 + 4 +   1 + 2 + 3 + 4 +   1 + 2 + 3 + 4 +   

e|-----------------|-----------------|-----------------|
B|-----------------|-----------------|-----------------|
G|---------6---6-6-|-8---8-8-7---7-7-|-----------------|
D|-3---3-3-6---6-6-|-8---8-8-7---7-7-|-6-6-2-2---------|
A|-3---3-3-4---4-4-|-6---6-6-5---5-5-|-6-6-2-2---------|
E|-1---1-1---------|-----------------|-4-4-0-0---------|
   1 + 2 + 3 + 4 +   1 + 2 + 3 + 4 +   1 + 2 + 3 + 4 +