3/10

DIFFICULTY

STANDARD TUNING

NO CAPO

Guitar Chord & Songwriting Cheat Sheet

GUITARZERO2HERO FREEBIE:

CHORD & SONGWRITING CHEAT SHEET

MASTER OVER 200+ CHORDS & MORE - YOU'LL ALSO RECEIVE THE LATEST NEWS & UPDATES FROM GUITARZERO2HERO

CHORD SHAPES (NO CAPO)

CHORD SHAPES (CAPO ON 2ND)

Welcome to this The Night We Met Guitar Tutorial by Lord Huron!
I had never heard of Lord Huron, but after getting a whole bunch of requests, decided to check the song out and I instantly fell in love with it. It’s quite simple to play but is also great for practicing flat picking and arpeggiating of barre chords. In this lesson I’ll also teach you an easy strummed version.

Big thanks to Eric Ben for his vocals on this track, check out his Youtube channel here – https://www.youtube.com/user/ericbengayomali

Enjoy! Like this #thenightwemet video by #lordhuron and subscribe to the channel for more videos in the future!

-Dave Tran (Your online guitar teacher ūüėĀ)


TABS/CHORDS

----------------------------------------------
 STUDIO VERSION NO CAPO
----------------------------------------------

[INTRO/CHORUS]
   F#m           E       A
e|-------------|-------|-------------|-------------|
B|-------8-----|-----9-|-------------|-------------|
G|-----11--11--|-------|-------6-----|-------6-----|
D|---11------11|---9---|-----7---7---|-----7---7---|
A|-9-----------|-7-----|---7-------7-|---7-------7-|
E|-------------|-------|-5-----------|-5-----------|
   1 2 3 2 2 3   1 2 3   1 2 3 2 2 3   1 2 3 2 2 3   
   F#m           A       D
e|-------------|-------|-------------|-------------|
B|-------------|-------|-------7-----|-------7-----|
G|-------2-----|-------|-----7---7---|-----7---7---|
D|-----4---4---|-----7-|---7-------7-|---7-------7-|
A|---4-------4-|---7---|-5-----------|-5-----------|
E|-2-----------|-5-----|-------------|-------------|
   1 2 3 2 2 3   1 2 3   1 2 3 2 2 3   1 2 3 2 2 3   

[VERSE]
   F#m           A       D
e|-------------|-------|-------------|-------------|
B|-------------|-------|-------7-----|-------7-----|
G|-------2-----|-------|-----7---7---|-----7---7---|
D|-----4---4---|-----7-|---7-------7-|---7-------7-|
A|---4-------4-|---7---|-5-----------|-5-----------|
E|-2-----------|-5-----|-------------|-------------|
   1 2 3 2 2 3   1 2 3   1 2 3 2 2 3   1 2 3 2 2 3   

----------------------------------------------
    EASY VERSION CAPO ON 2ND
----------------------------------------------

[Intro]
Em  D G
Oooooooooooooo
Em  G C
Oooooooooooooo

Em  D G
Oooooooooooooo
Em  G C
Oooooooooooooo

[Chorus] 
Em            D    G
 I am not the only traveler
Em             G        C
 Who has not repaid his debt
Em              D        G
I've been searching for a trail to follow again
Em         G        C
Take me back to the night we met

[Verse]
EmG      C
And then I can tell myself
Em         G         C
What the hell I'm supposed to do
EmG      C
And then I can tell myself
Em   G         C
Not to ride along with you

[Chorus]
Em                         D           G
I had all and then most of you, some and now none of you
Em         G        C
Take me back to the night we met
Em                            D              G
I don't know what I'm supposed to do, haunted by the ghost of you
Em         G        C
Oh, take me back to the night we met

[Verse]
Em       G       C
When the night was full of terror
Em       G           C
And your eyes were filled with tears
Em     G          C
When you had not touched me yet
Em         G        C
Oh, take me back to the night we met

[Chorus]
Em                         D           G
I had all and then most of you, some and now none of you
Em         G        C
Take me back to the night we met
Em                            D              G
I don't know what I'm supposed to do, haunted by the ghost of you
Em         G        C
Take me back to the night we met

[Outro]
Em G C  x2