3/10

DIFFICULTY

STANDARD TUNING

NO CAPO

Guitar Chord & Songwriting Cheat Sheet

GUITARZERO2HERO FREEBIE:

CHORD & SONGWRITING CHEAT SHEET

MASTER OVER 200+ CHORDS & MORE - YOU'LL ALSO RECEIVE THE LATEST NEWS & UPDATES FROM GUITARZERO2HERO

CHORD SHAPES (NO CAPO)

CHORD SHAPES (CAPO ON 4TH)

Welcome to this Memories Guitar Tutorial by Maroon 5!
This is a cool song with a nice fingerpicking pattern repeated throughout. It actually takes the chord progression from the classical composition Cannon in D which is cool and works really well. In this lesson I’ll teach you 2 different ways to play this.

1. With no capo (a bit harder)
2. With a Capo (Easier chords)

Big thanks to Eric Ben for his vocals on this track, check out his Youtube channel here – https://www.youtube.com/user/ericbengayomali

Enjoy! Like this #memories video by #maroon5 and subscribe to the channel for more videos in the future!

-Dave Tran (Your online guitar teacher 😁)


TABS/CHORDS

----------------------------------------------
 NO CAPO VERSION
----------------------------------------------

   B     F#          G#mD#m         E     B           E     F#
e|-----------------|-----------------|-----------------|-----------------|
B|-----4-------2---|-------------7---|-----0-------4---|-----0-------2---|
G|-----4-------3---|-----4-------8---|-----1-------4---|-----1-------3---|
D|---4-------------|-----6-----------|-----------------|-----------------|
A|-2---------------|---6---6---------|---2---2---------|---2-------------|
E|-------2---------|-4---------------|-0---------------|-0-----2---------|
   1 + 2 + 3 + 4 +   1 + 2 + 3 + 4 +   1 + 2 + 3 + 4 +   1 + 2 + 3 + 4 +

----------------------------------------------
 EASY VERSION
----------------------------------------------

   G     D           Em    Bm          C     G           C     D
e|-----------------|-----------------|-----------------|-----------------|
B|-----0-------3---|-----0-------2---|-----1-------0---|-----1-------3---|
G|-----0-------2---|-----0-------4---|-----0-------0---|-----0-------2---|
D|---0---0---------|---2-------------|---2-------------|---2---0---------|
A|-----------------|-------2---------|-3---------------|-3---------------|
E|-3---------------|-0---------------|-------3---------|-----------------|
   1 + 2 + 3 + 4 +   1 + 2 + 3 + 4 +   1 + 2 + 3 + 4 +   1 + 2 + 3 + 4 +