3.5/10

DIFFICULTY

STANDARD TUNING

NO CAPO

Guitar Chord & Songwriting Cheat Sheet

GUITARZERO2HERO FREEBIE:

CHORD & SONGWRITING CHEAT SHEET

MASTER OVER 200+ CHORDS & MORE - YOU'LL ALSO RECEIVE THE LATEST NEWS & UPDATES FROM GUITARZERO2HERO

CHORD SHAPES

Welcome to this Circles guitar tutorial by Post Malone!
I’m super excited to hear what else Post Malone has coming for his new album. Circles is a cool track with a flowing acoustic strummed guitar throughout. It’s pretty simple since it’s just one chord progression most of the way through. The trickiest part will be remembering where the chord changes are. I’ll also teach you how to play the lead guitar at the start of the video.

A big thank you to Toogla again for his vocals in the song playthrough at the end of the video. You can check out his youtube channel here – http://bit.ly/2K6AcRk

Enjoy! Like this #circles video by #postmalone and subscribe to the channel for more videos in the future!

-Dave Tran (Your online guitar teacher 😁)

[Main Chord Progression]
   Cmaj7         Em/B    Em7/B       Fma7(#11)       Fma7
e|-0-------------0-------0---------|-0---------------0---------------|
B|-0-------------0-------3---------|-0---------------1---------------|
G|-0-------------0-------0---------|-2---------------2---------------|
D|-2-------------0-------2---------|-3---------------3---------------|
A|-3-------------2-------2---------|-3---------------3---------------|
E|---------------------------------|-1---------------1---------------|
   1 + 2 + 3 + 4 + 1 + 2 + 3 + 4 +   1 + 2 + 3 + 4 + 1 + 2 + 3 + 4 +
   D U D U D U D U D U D U D U D U   D U D U D U D U D U D U D U D U

   Cmaj7         Em/B                Fma7      
e|-0-------------0-----------------|-0-----------------------0-------|
B|-0-------------0-----------------|-1-----------------------3-------|
G|-0-------------0-----------------|-2-----------------------4-------|
D|-2-------------0-----------------|-3-----------------------5-------|
A|-3-------------2-----------------|-3-----------------------5-------|
E|---------------------------------|-1-----------------------3-------|
   1 + 2 + 3 + 4 + 1 + 2 + 3 + 4 +   1 + 2 + 3 + 4 + 1 + 2 + 3 + 4 +
   D U D U D U D U D U D U D U D U   D U D U D U D U D U D U D U D U

[Intro Lead]
e|-----------------|-----------------|-----------------|-----------------|
B|-----------------|-----8---10—8\5--|-----------------|-----8---10—8\5--|
G|-----------------|-----------------|-----------------|-----------------|
D|-----------------|-----------------|-----------------|-----------------|
A|-----------------|-----------------|-----------------|-----------------|
E|-----------------|-----------------|-----------------|-----------------|
   1 + 2 + 3 + 4 +   1 + 2 + 3 + 4 +   1 + 2 + 3 + 4 +   1 + 2 + 3 + 4 +

e|-----------------|-----------------|-----------------|-----------------|
B|-----------------|-----8---10—8\5--|-----5\3-----3/5-|-----5\3-----3\1-|
G|-----------------|-----------------|-----------------|-----------------|
D|-----------------|-----------------|-----------------|-----------------|
A|-----------------|-----------------|-----------------|-----------------|
E|-----------------|-----------------|-----------------|-----------------|
   1 + 2 + 3 + 4 +   1 + 2 + 3 + 4 +   1 + 2 + 3 + 4 +   1 + 2 + 3 + 4 +

[Bridge]
| Cmaj7 | Em/B | Fmaj7 | Fm |
| Cmaj7 | Em/B | Fmaj7 | - |