4/10

DIFFICULTY

STANDARD TUNING

CAPO ON 1st

Guitar Chord & Songwriting Cheat Sheet

GUITARZERO2HERO FREEBIE:

CHORD & SONGWRITING CHEAT SHEET

MASTER OVER 200+ CHORDS & MORE - YOU'LL ALSO RECEIVE THE LATEST NEWS & UPDATES FROM GUITARZERO2HERO

CHORD SHAPES

Welcome to this Suga Suga Guitar Tutorial by Baby Bash!
This is a bit of a throwback tune but has, a cool Rnb guitar riff which is super fun to loop and play on the guitar. It requires a bit of fingerpicking and a Capo on the 1st fret of your guitar.

Big thanks to Eric Ben for his vocals on this track, check out his Youtube channel here – https://www.youtube.com/user/ericbengayomali

Enjoy! Like this #sugasuga video by #babybash and subscribe to the channel for more videos in the future!

-Dave Tran (Your online guitar teacher 😁)

----------------------------
CAPO ON 1
----------------------------


[Main Riff]
 Am            EmC          A5
e|---------------------------------|-----------------------------|
B|---1---1h3p1---------------------|-----------------------------|
G|-----2---------0---0---0h2p0---0-|----------------2---2h4p2--0-|
D|-----------------2---2-------2---|---2----4--------------------|
A|-0-----------0-------------------|-3--3/5---5-0----0-------0---|
E|---------------------------------|-----------------------------|


[Intro]
Am         Em

  So tight,   so fly
Am                  Em
  You got me lifted,   you got me lifted

[Chorus]
        Am
You got me lifted shifted
Em
higher than a ceiling
C       D            Am
And ooh wee it’s the ultimate feeling
Am
You got me lifted
Em
feeling so gifted
C             D      Am
Sugar how you get so fly?

Am                       Em
Suga suga how you get so fly?
C                 D      Am
Suga suga how you get so fly?
Am                       Em
Suga suga how you get so fly?
C                 D      Am
Suga suga how you get so fly?