3/10

DIFFICULTY

STANDARD TUNING

NO CAPO

Guitar Chord & Songwriting Cheat Sheet

GUITARZERO2HERO FREEBIE:

CHORD & SONGWRITING CHEAT SHEET

MASTER OVER 200+ CHORDS & MORE - YOU'LL ALSO RECEIVE THE LATEST NEWS & UPDATES FROM GUITARZERO2HERO

CHORD SHAPES

Welcome to this It’s You Guitar Tutorial by Ali Gatie! This song has a great fingerpicked riff throughout the whole song which sounds great and is super beginner friendly. In this lesson I also teach you some easy strummed chords if the fingerpicking is not quite your style or too hard for you. This is a great introduction for beginners on how to use the slap technique properly in a picked guitar riff.

Big thanks to Eric Ben for his vocals on this track, check out his Youtube channel here – https://www.youtube.com/user/ericbengayomali

Enjoy! Like this #itsyou video by #aligatie and subscribe to the channel for more videos in the future!

-Dave Tran (Your online guitar teacher ūüėĀ)

[Intro]
Bm   G   A   D

[Intro]
   Bm                G                 A                 D
e|-----x-2-----x---|-----x-------x---|-----x-------x---|-----x--------x---|
B|-3---x-3-----x---|-----x-5-----x---|-----x-5-----x---|-7---x-5------x---|
G|-4---x-------x---|-4---x-4-----x---|-6---x-6-----x---|-7---x-6------x---|
D|-----x-------x---|-5---x-------x---|-7---x-------x---|-7---x-7------x---|
A|-2---x-------x---|-----x-------x---|-----x-------x---|-----x--------x---|
E|-----x-------x---|-3---x-------x---|-5---x-------x---|-----x--------x---|
   1 + 2 + 3 + 4 +   1 + 2 + 3 + 4 +   1 + 2 + 3 + 4 +   1 + 2 +  3 + 4 +

[Main Riff]
   Bm                G                 A                 D
e|-----x-2-----x---|-----x-------x---|-----x-------x---|-2---x-0h2-----x---|
B|-3---x-3-----x---|-----x-5-----x---|-----x-5-----x---|-3---x-3-------x---|
G|-4---x-------x---|-4---x-4-----x---|-6---x-6-----x---|-2---x-2-------x---|
D|-----x-------x---|-5---x-------x---|-7---x-------x---|-----x---------x---|
A|-2---x-------x---|-----x-------x---|-----x-------x---|-----x---------x---|
E|-----x-------x---|-3---x-------x---|-5---x-------x---|-----x---------x---|
   1 + 2 + 3 + 4 +   1 + 2 + 3 + 4 +   1 + 2 + 3 + 4 +   1 + 2 +   3 + 4 +

   Bm                G                 A                 D
e|-----x-2-----x---|-----x-------x---|-----x-------x---|-----x--------x---|
B|-3---x-3-----x---|-----x-5-----x---|-----x-5-----x---|-7---x-5------x---|
G|-4---x-------x---|-4---x-4-----x---|-6---x-6-----x---|-7---x-6------x---|
D|-----x-------x---|-5---x-------x---|-7---x-------x---|-7---x-7------x---|
A|-2---x-------x---|-----x-------x---|-----x-------x---|-----x--------x---|
E|-----x-------x---|-3---x-------x---|-5---x-------x---|-----x--------x---|
   1 + 2 + 3 + 4 +   1 + 2 + 3 + 4 +   1 + 2 + 3 + 4 +   1 + 2 +  3 + 4 +

[Chorus]
     Bm               G
It's you, it's always you
       A                         D
If I'm ever gonna fall in love I know it's gonna be you
     Bm               G
It's you, it's always you
A                         D
Met a lot of people but nobody feels like you
   Bm
So please don't break my heart
G
Don't tear me apart
A                     D
I know how it starts, trust me I've been broken before
Bm
Don't break me again
G
I am delicate
A
Please don't break my heart
D
Trust me, I've been broken before

[Verse 1]
Bm                  G
I've been broken yeah I know how it feels
A              D
To be open and then find out your love isn't real
Bm                   G
I'm still hurting yeah I'm hurting inside
A                         D
I'm so scared to fall in love but if it's you then I'll try

[Chorus]
     Bm               G
It's you, it's always you
       A                         D
If I'm ever gonna fall in love I know it's gonna be you
     Bm               G
It's you, it's always you
A                         D
Met a lot of people but nobody feels like you
   N.C.
So please don't break my heart
G
Don't tear me apart
A                     D
I know how it starts, trust me I've been broken before
Bm
Don't break me again
G
I am delicate
A
Please don't break my heart
D
Trust me, I've been broken before

[Verse 2]
  Bm                                G
I know I'm not the best at choosing lovers
A                                 D
We both know my past speaks for itself
   Bm                                        G
If you don't think that we're right for each other
     A                          D
Then please don't let history repeat itself
             Bm               G
Cause I want you yeah, I want you yeah
        A              D
There's nothing else I want
             Bm               G
Cause I want you yeah, I want you yeah
    A                       D
And you're the only thing I want

[Chorus]
     Bm               G
It's you, it's always you
       A                         D
If I'm ever gonna fall in love I know it's gonna be you
     Bm               G
It's you, it's always you
  A                         D
Met a lot of people but nobody feels like you
   Bm
So please don't break my heart
G
Don't tear me apart
A                     D
I know how it starts, trust me I've been broken before
Bm                    G
Don't break me again, I am delicate
A                          D  A
Please don't break my heart
Bm            G
 Trust me, I've been broken before