5/10

DIFFICULTY

STANDARD TUNING

CAPO ON 1ST

Guitar Chord & Songwriting Cheat Sheet

GUITARZERO2HERO FREEBIE:

CHORD & SONGWRITING CHEAT SHEET

MASTER OVER 200+ CHORDS & MORE - YOU'LL ALSO RECEIVE THE LATEST NEWS & UPDATES FROM GUITARZERO2HERO

CHORD SHAPES

Welcome to this I Love You 3000 Guitar Tutorial by Stephanie Poetri! This song sounds rather complicated because of its jazzy sounding chords, but in reality it’s just based off 2 chords progressions that get used throughout the song. The tricky part is then applying the different picking patterns to these chords. However if you’re a beginner you could literally just play each chord once and hold it out as opposed to using the picking patterns and that would be fine too. This song has some other challenging techniques so be sure to give it a shot and see how you go.

Enjoy! Like this #iloveyou3000 video by #stephaniepoetri and subscribe to the channel for more videos in the future!

-Dave Tran (Your online guitar teacher ūüėĀ)

---------------------------------
     CAPO ON 1ST
---------------------------------

[Verse/Chorus Simple]
   Gm7               C9                Am7               D7b9
e|-----------------|-----------------|-----------------|-----------------|
B|-3---------------|-3---------------|-1---------------|-4---------------|
G|-3---------------|-3---------------|-0---------------|-5---------------|
D|-3---------------|-2---------------|-2---------------|-4---------------|
A|-----------------|-3---------------|-0---------------|-5---------------|
E|-3---------------|-----------------|-----------------|-----------------|
   1 + 2 + 3 + 4 +   1 + 2 + 3 + 4 +   1 + 2 + 3 + 4 +   1 + 2 + 3 + 4 +
   Gm7               C9                Fmaj7             F#dim7
e|-----------------|-----------------|-----------------|-----------------|
B|-3---------------|-3---------------|-1---------------|-1---------------|
G|-3---------------|-3---------------|-2---------------|-2---------------|
D|-3---------------|-2---------------|-2---------------|-1---------------|
A|-----------------|-3---------------|-----------------|-----------------|
E|-3---------------|-----------------|-1---------------|-2---------------|
   1 + 2 + 3 + 4 +   1 + 2 + 3 + 4 +   1 + 2 + 3 + 4 +   1 + 2 + 3 + 4 +

[Prechorus/Postchorus Simple]
   Gm7               C9                Am7               D7b9
e|-----------------|-----------------|-----------------|-----------------|
B|-3---------------|-3---------------|-1---------------|-4---------------|
G|-3---------------|-3---------------|-0---------------|-5---------------|
D|-3---------------|-2---------------|-2---------------|-4---------------|
A|-----------------|-3---------------|-0---------------|-5---------------|
E|-3---------------|-----------------|-----------------|-----------------|
   1 + 2 + 3 + 4 +   1 + 2 + 3 + 4 +   1 + 2 + 3 + 4 +   1 + 2 + 3 + 4 +

[Prechorus/Postchorus]
   Gm7               C9                Am7               D7b9
e|-------5---------|-------3---------|-------3---------|-------5---------|
B|-3---3-----------|-3---3-----------|-1---1-----------|-4---4-----------|
G|-3-3-------------|-3-3-------------|-2-2-------------|-5-5-------------|
D|-----------------|-----------------|-2---------------|-----------------|
A|-----------------|-3---------------|-0---------------|-5---------------|
E|-3---------------|-----------------|-----------------|-----------------|
   1 + 2 + 3 + 4 +   1 + 2 + 3 + 4 +   1 + 2 + 3 + 4 +   1 + 2 + 3 + 4

[Chorus]
   Gm7               C9                Am7               D7b9
e|-------------x---|-------------x---|-------------x---|-------------x---|
B|-3---3-----3-x-3-|-3---3-----3-x-3-|-1---1-----1-x-1-|-4---4-----4-x-4-|
G|-3---3-----3-x-3-|-3---3-----3-x-3-|-0---0-----0-x-0-|-5---5-----5-x-5-|
D|-3---3---3---x---|-2---2---2---x---|-2---2---2---x---|-4---4---4---x---|
A|-----x-------x---|-3---x-3-----x---|-0---x-0-----x---|-5---x-5-----x---|
E|-3---x-3-----x---|-----x-------x---|-----x-------x---|-----x-------x---|
   1 + 2 + 3 + 4 +   1 + 2 + 3 + 4 +   1 + 2 + 3 + 4 +   1 + 2 + 3 + 4 +
   Gm7               C9                Fmaj7             F#dim7
e|-------------x---|-------------x---|-------------x---|-------------x---|
B|-3---3-----3-x-3-|-3---3-----3-x-3-|-1---1-----1-x-1-|-1---1-----1-x-1-|
G|-3---3-----3-x-3-|-3---3-----3-x-3-|-2---2-----2-x-2-|-2---2-----2-x-2-|
D|-3---3---3---x---|-2---2---2---x---|-2---2---2---x---|-1---1---1---x---|
A|-----x-------x---|-3---x-3-----x---|-----x-------x---|-----x-------x---|
E|-3---x-3-----x---|-----x-------x---|-1---x-1-----x---|-2---x-2-----x---|
   1 + 2 + 3 + 4 +   1 + 2 + 3 + 4 +   1 + 2 + 3 + 4 +   1 + 2 + 3 + 4 +


[Verse 2]
   Gm7               C9                Am7               D7b9
e|-----------------|-----------------|-----------------|-----------------|
B|-----3-----3---3-|-----3-----3---3-|-----1-----1---1-|-----4-----4---4-|
G|-----3-----3---3-|-----3-----3---3-|-----0-----0---0-|-----5-----5---5-|
D|-----------------|-----------------|-----------------|-----------------|
A|-----------------|-3-----3-----3---|-0-----0-----0---|-5-----5-----5---|
E|-3-----3-----3---|-----------------|-----------------|-----------------|
   1 + 2 + 3 + 4 +   1 + 2 + 3 + 4 +   1 + 2 + 3 + 4 +   1 + 2 + 3 + 4 +
   Gm7               C9                Fmaj7             F#dim7
e|-----------------|-----------------|-----------------|-----------------|
B|-----3-----3---3-|-----3-----3---3-|-----1-----1---1-|-----1-----1---1-|
G|-----3-----3---3-|-----3-----3---3-|-----2-----2---2-|-----2-----2---2-|
D|-----------------|-----------------|-----------------|-----------------|
A|-----------------|-3-----3-----3---|-----------------|-----------------|
E|-3-----3-----3---|-----------------|-1-----1-----1---|-2-----2-----2---|
   1 + 2 + 3 + 4 +   1 + 2 + 3 + 4 +   1 + 2 + 3 + 4 +   1 + 2 + 3 + 4 +

[Intro]
Gm7
Baby, take my hand
       C9
I want you to be my husband
       Am7
'Cause you're my Iron Man
       D7b9
And I love you 3000
Gm7
Baby, take a chance
       C9
'Cause I want this to be something
    Fmaj7                      F#dim7
Straight out of a Hollywood movie


[Verse 1]
  Gm7
I see you standing there
     C9
In your hulk outerwear
    Am7
And all I can think
    D7b9
Is where is the ring
    Gm7
'Cause I know you wanna ask
    C9
Scared the moment will pass
   Fmaj7
I can see it in your eyes
    F#dim7
Just take me by surprise


[Pre-Chorus]
    Gm7                      C9
And all my friends they tell me they see
    Am              D7b9
You planning to get on one knee
    Gm7               C9
But I want it to be out of the blue
    Am7                   D7b9
So make sure I have no clues
When you ask


[Chorus]
Gm7
Baby, take my hand
       C9
I want you to be my husband
       Am7
'Cause you're my Iron Man
       D7b9
And I love you 3000
Gm7
Baby, take a chance
       C9
'Cause I want this to be something
    Fmaj7                      F#dim7
Straight out of a Hollywood movie


[Verse 2]
        Gm7
Now we're having dinner
     C9
And baby you're my winner
  Am7
I see the way you smile
           D7b9
You're thinking about the aisle
       Gm7
You reach in your pocket
 C9
Emotion unlocking
       Fmaj7
And before you could ask
               F#dim7
I answer too fast


[Pre-Chorus]

    Gm7                 C9
And all my friends they tell me they see
    Am7            D7b9
You planing to get on one knee
   Gm7                         C9
So now I can't stop thinking about you
  Am7
I figured out all the clues
  D7b9
So now I ask


[Chorus]
 Gm7
Baby, take my hand
       C9
I want you to be my husband
       Am7
'Cause you're my Iron Man
       D7b9
And I love you 3000
 Gm7
Baby, take a chance
       C9
'Cause I want this to be something
    Fmaj7                      F#dim7
Straight out of a Hollywood movie


[Post-Chorus]
Gm7            C9
   No spoilers please
Cm7              D7b9
     No spoilers please


[Chorus]
 Gm7
Baby, take my hand
       C9
I want you to be my husband
      Am7
'Cause you're my Iron Man
       D7b9
And I love you 3000
 Gm7
Baby, take a chance
          C9
'Cause I want this to be something
    Fmaj7                      F#dim7
Straight out of a Hollywood movie, Baby


[Post-Chorus]
Gm7             C9
     No spoilers please
Cm7              D7b9
     No spoilers please
Gm7              C9
      No spoilers please
Cm7                D7b9
      No spoilers please
And I love you 3000