4/10

DIFFICULTY

STANDARD TUNING

CAPO ON 2ND

Guitar Chord & Songwriting Cheat Sheet

GUITARZERO2HERO FREEBIE:

CHORD & SONGWRITING CHEAT SHEET

MASTER OVER 200+ CHORDS & MORE - YOU'LL ALSO RECEIVE THE LATEST NEWS & UPDATES FROM GUITARZERO2HERO

CHORD SHAPES

Welcome to this In My Life Guitar Tutorial by The Beatles! This song just has such a nice vibe to it and is a really beautiful love song with a nice message. In terms of chords and strumming its fairly simple and actually has a cool intro riff which sounds great and is fun to play. I also teach you how to play the solo for this song on the electric guitar.

My friend and amazing artist Toogla has provided vocals for the playthrough at the end of the song. Check his youtube channel out and hit subscribe‚ĖļTOOGLA’s CHANNEL – http://bit.ly/2X4CQux

Enjoy! Like this #inmylife video by #thebeatles and subscribe to the channel for more videos in the future!

-Dave Tran (Your online guitar teacher ūüėĀ)

-----------------------------------------
              CAPO ON 2ND 
-----------------------------------------

[Intro]  
G     D     G     D

E|-----3---------2-|-----------------|
B|-0-------0h1-3-3-|-----------------|
G|---------------2-|-----------------|
D|---------------0-|-----------------|
A|-----------------|-----------------|
E|-3---------------|-----------------|
   1 + 2 + 3 + 4 +   1 + 2 + 3 + 4 +

[Verse 1]
G      D      Em    G7       C   Cm         G
places I'll remember  all my li--ife though some have changed. Some for-
G    D       Em    G7           C   Cm      G
ever not for better,  some have go--one and some remain. All these
Em               C            F                    G
places had their moments, with lovers and friends I still can recall. Some are
Em                A           Cm           G                 
dead and some are living. In my life I've loved them all.

[Bridge] 
G    D

[Verse 2]
G         D           Em    G7         C  Cm     G
all these friends and lovers, there is no one compares with you. And these
G         D         Em     G7     C          Cm      G
memories lose their meaning, when I think of love as something new. Though I 
Em                    C            F                      G
know I'll never lose affection for people and things that went before, I 
Em                             A               Cm          G
know I'll often stop and think about them. In my life I'll love you more.

(Piano/Harpsichord solo)
G       D      Em     G7      C       Cm      G
G       D      Em     G7      C       Cm      G   

[Verse 3]
         Em                    C            F                      G
Though I know I'll never lose affection for people and things that went before, I 
Em                              A             Cm           G
know I'll often stop and think about them. In my life I'll love you more. 

[Outro]
E|-----3---------2-|-----------------|-3-|
B|-0-------0h1-3-3-|-----------------|-4-|
G|---------------2-|-----------------|-5-|
D|---------------0-|-----------------|-5-|
A|-----------------|-----------------|-3-|
E|-3---------------|-----------------|---|
   1 + 2 + 3 + 4 +   1 + 2 + 3 + 4 +

E|-----3---------2-|---------2-0-2---|-3-|
B|-0-------0h1h3-3-|---------3---3---|-3-|
G|---------------2-|---------2-------|-0-|
D|---------------0-|---------0-------|-0-|
A|-----------------|-----------------|-2-|
E|-3---------------|-----------------|-3-|
   1 + 2 + 3 + 4 +   1 + 2 + 3 + 4 +