4.5/10

DIFFICULTY

STANDARD TUNING

NO CAPO

Guitar Chord & Songwriting Cheat Sheet

GUITARZERO2HERO FREEBIE:

CHORD & SONGWRITING CHEAT SHEET

MASTER OVER 200+ CHORDS & MORE - YOU'LL ALSO RECEIVE THE LATEST NEWS & UPDATES FROM GUITARZERO2HERO

CHORD SHAPES

Welcome to this Señorita Guitar Tutorial by Shawn Mendes & Camila Cabello!

Damn this song is catchy! I absolutely love the spanish guitar vibes in this tune and there’s a lot of cool guitar parts to learn. At it’s core it’s a basic song with a chord progression that repeats basically the whole way through, but to really make it shine there’s a fingerpicking pattern rhythm that gives that cruisey spanish vibe. In the lesson i’ll also teach you how to play the intro and outro guitar riffs on the electric guitar. In total I teach you 2 different ways to play the song

  1. Studio version
  2. Easy Strummed version

A big thank you to Amanda again for her beautiful vocals in the song playthrough at the end of the video. You can check out her youtube channel here – https://www.youtube.com/user/XxMissAmandaLeexX

Enjoy! Like this #señorita video by #shawnmendes #camilacabello and subscribe to the channel for more videos in the future!

-Dave Tran (Your online guitar teacher 😁)



[Studio Fingerpicked Riff]
   Am                                  C
E|-------------x---|-----x-------x---|-------------x---|-----x-------x----|
B|-------------x---|-----x-------x---|-------------x---|-----x-------x----|
G|-----5-----5-x---|---5-x-----5-x---|-----9-----9-x---|---9-x-----9-x----|
D|-----7-----7-x---|---7-x-----7-x---|-----10----10x---|---10x-----10x----|
A|-------------x---|-----x---7---x---|-------------x---|-----x---10--x----|
E|-5-------5---x-5-|-----x-5-----x-5-|-8-------8---x-8-|-----x-8-----x-8--|
   1 + 2 + 3 + 4 +   1 + 2 + 3 + 4 +   1 + 2 + 3 + 4 +   1 + 2 + 3 + 4 +  
   F                                   Em7           G
E|-------------x---|-----x-------x---|-------------x---|----x-------x-----|
B|-----10----10x---|---10x-----10x---|-----8-----8-x---|--12x-----12x-----|
G|-----10----10x---|---10x-----10x---|-----7-----7-x---|--12x-----12x-----|
D|-------------x---|-----x---10--x---|-------------x---|----x---12--x-----|
A|-8-------8---x-8-|-----x-8-----x-8-|-7-------7---x-10|----x-10----x--10-|
E|-------------x---|-----x-------x---|-------------x---|----x-------x-----|
   1 + 2 + 3 + 4 +   1 + 2 + 3 + 4 +   1 + 2 + 3 + 4 +   1 + 2 + 3 + 4 +  

[Easy Fingerpicked Riff]
   Am                                  C
E|-------------x---|-----x-------x---|-------------x---|-----x-------x----|
B|-----1-----1-x---|---1-x-----1-x---|-----1-----1-x---|---1-x-----1-x----|
G|-----2-----2-x---|---2-x-----2-x---|-----0-----0-x---|---0-x-----0-x----|
D|-------------x---|-----x---2---x---|-------------x---|-----x---2---x----|
A|-0-------0---x-0-|-----x-0-----x-0-|-3-------3---x-3-|-----x-3-----x-3--|
E|-------------x---|-----x-------x---|-------------x---|-----x-------x----|
   1 + 2 + 3 + 4 +   1 + 2 + 3 + 4 +   1 + 2 + 3 + 4 +   1 + 2 + 3 + 4 +  
   F                                   Em7           G
E|-------------x---|-----x-------x---|-------------x---|-----x-------x----|
B|-----1-----1-x---|---1-x-----1-x---|-----0-----0-x---|---3-x-----3-x----|
G|-----2-----2-x---|---2-x-----2-x---|-----0-----0-x---|---0-x-----0-x----|
D|-------------x---|-----x---3---x---|-------------x---|-----x---0---x----|
A|-------------x---|-----x-------x---|-------------x---|-----x-------x----|
E|-1-------1---x-1-|-----x-1-----x-1-|-0-------0---x-3-|-----x-3-----x-3--|
   1 + 2 + 3 + 4 +   1 + 2 + 3 + 4 +   1 + 2 + 3 + 4 +   1 + 2 + 3 + 4 +  

[Intro Outro Riff]
   Am
e|-------------------------|--------------------------|
B|-13----------------13-12-|-------------13-12----12--|
G|-------14----------------|----12----12-------14-----|
D|-------------14----------|--------------------------|
A|-------------------------|--------------------------|
E|-------------------------|--------------------------|
   1  +  2  +  3  +  4  +    1  +  2  +  3  +  4  +
   C
e|-------------------------|--------------------------|
B|-13----------------13-12-|-------------13-12--------|
G|-------12----------------|----12----12-------14-12--|
D|-------------14----------|--------------------------|
A|-------------------------|--------------------------|
E|-------------------------|--------------------------|
   1  +  2  +  3  +  4  +    1  +  2  +  3  +  4  +
   F
e|-------------------------|--------------------------|
B|------13--13-13----------|------13--13-13-------12--|
G|-------------------------|--------------------------|
D|-15-------------------15-|-15-----------------------|
A|-------------------------|--------------------------|
E|-------------------------|--------------------------|
   1  +  2  +  3  +  4  +    1  +  2  +  3  +  4  +
   Em7                  G
e|-------------------------|--------------------------|
B|----13-12-13-12-------12-|----13-12-13-12-----------|
G|----------------12-------|----------------12--------|
D|-------------------------|--------------------------|
A|-------------------------|--------------------------|
E|-------------------------|--------------------------|
   1  +  2  +  3  +  4  +    1  +  2  +  3  +  4  +


[Intro]
| Am |  C |  F  | Em  G |


[Chorus 1]
                   Am
I love it when you call me señorita
                  C
I wish I could pretend I didn't need ya
                   F
But every touch is ooh-la-la-la, it's true la-la-la
 Em
Ooh, I should be runnin'
G                           Am
Ooh, you keep me comin' for ya


[Verse 1]
                                           C
Land in Miami, the air was hot from summer rain
                                              F
Sweat drippin' off me, before I even knew her name, la-la-la
             Em           G
It felt like ooh-la-la-la, yeah, no

Am                                                    C
   Sapphire and moonlight, we danced for hours in the sand
                                          F
Tequila sunrise, her body fit right in my hands, la-la-la
             Em           G
It felt like ooh-la-la-la, yeah


[Chorus 2]
N.C.               Am
I love it when you call me señorita
                  C
I wish I could pretend I didn't need ya
                   F
But every touch is ooh-la-la-la, it's true la-la-la
 Em
Ooh, I should be runnin'
G                           
Ooh, you know I love it when you
Am
Call me señorita
                 C
I wish it wasn't so damn hard to leave ya
                   F
But every touch is ooh-la-la-la, it's true la-la-la
 Em
Ooh, I should be runnin'
G                           Am
Ooh, you keep me comin' for ya


[Verse 2]
                                                         C
Locked in the hotel, there's just some things that never change
                                                               F
You say we're just friends, but friends don't know the way you taste, la-la-la
           Em                                                 G     N.C.
'Cause you know it's been a long time comin', don't ya let me fall, ooh ooh-ooh-ah-ah

[Prechorus]
Am
Ooh, when your lips undress me, hooked on your tongue
C                              G
Ooh, love your kiss is deadly, don't stop


[Chorus 3]
N.C.               Am
I love it when you call me señorita
                  C
I wish I could pretend I didn't need ya
                   F
But every touch is ooh-la-la-la, it's true la-la-la
 Em
Ooh, I should be runnin'
G                           
Ooh, you know I love it when you
Am
Call me señorita
                 C
I wish it wasn't so damn hard to leave ya
                   F
But every touch is ooh-la-la-la, it's true la-la-la
 Em
Ooh, I should be runnin'
G                           Am
Ooh, you keep me comin' for ya


[Outro]
                               C
All along I've been comin' for ya (for you)
                                 F
And I hope it meant something to ya (ooh ooh-ooh-ooh)
                                 Em                     G                          Am  
Call my name, I'll be comin' for ya,           comin' for ya,           for ya-ah-ah-ah
                                (comin' for ya)          (comin' for ya)
             C
For ya-ah-ah-ah (oh, she loves it when I come)
             F
For ya-ah-ah-ah
 Em
Ooh, I should be runnin'
G                           Am
Ooh, you keep me comin' for ya