3.5/10

DIFFICULTY

STANDARD TUNING

NO CAPO

Guitar Chord & Songwriting Cheat Sheet

GUITARZERO2HERO FREEBIE:

CHORD & SONGWRITING CHEAT SHEET

MASTER OVER 200+ CHORDS & MORE - YOU'LL ALSO RECEIVE THE LATEST NEWS & UPDATES FROM GUITARZERO2HERO

CHORD SHAPES

Welcome to this I Think I’m Okay Guitar Tutorial by Machine Gun Kelly, YUNGBLUD and Travis Barker!
This is a really cool track and definitely throws back to the pop/punk emo era of the 2000’s which is what I love!

It’s got a fun guitar lick to play but rhythm wise, has the same chord progression throughout the whole song.

Enjoy! Like this #ithinkimokay video by #machinegunkelly and subscribe to the channel for more videos in the future!

-Dave Tran (Your online guitar teacher ūüėĀ)

[Intro]

e|-----------------|   |-----------------|
B|-----------------|   |-----------------|
G|---7-4---4-0---0-|   |---5-4---4-0---0-|
D|-5-----5-----5---|   |-5-----5-----5---|
A|-----------------|   |-----------------|
E|-----------------|   |-----------------|
        x3                     x1

[Riff for rest of song]

e|-----------------|   |-----------------|
B|-----------------|   |-----------------|
G|---7-4---4-0---0-|   |---5-4---4-0---0-|
D|-5-----5-----5---|   |-5-----5-----5---|
A|-----------------|   |-----------------|
E|-----------------|   |-----------------|
        x6                     x2 or x1 depending on if there's a pause

[Open Chords]
   Cadd9 Em7   D                       Cadd9 G     D                       
e|-3-----3-----2---|-----------------|-3-----3-----2---|-----------------|
B|-3-----3-----3---|-----------------|-3-----3-----3---|-----------------|
G|-0-----0-----2---|-----------------|-0-----0-----2---|-----------------|
D|-2-----2-----0---|-----------------|-2-----0-----0---|-----------------|
A|-3-----2---------|-----------------|-3-----2---------|-----------------|
E|-------0---------|-----------------|-------3---------|-----------------|
   1 + 2 + 3 + 4 +   1 + 2 + 3 + 4 +   1 + 2 + 3 + 4 +   1 + 2 + 3 + 4 +  
   Cadd9 Em7   D                       Am    G/B   Em7                       
e|-3-----3-----2---|-----------------|-0-----------3---|-----------------|
B|-3-----3-----3---|-----------------|-1-----3-----3---|-----------------|
G|-0-----0-----2---|-----------------|-2-----0-----0---|-----------------|
D|-2-----2-----0---|-----------------|-2-----0-----2---|-----------------|
A|-3-----2---------|-----------------|-0-----2-----2---|-----------------|
E|-------0---------|-----------------|-------------0---|-----------------|
   1 + 2 + 3 + 4 +   1 + 2 + 3 + 4 +   1 + 2 + 3 + 4 +   1 + 2 + 3 + 4 + 


[Power Chords]
   C5    E5    D5                      C5    G5    D5               
e|-----------------|-----------------|-----------------|-----------------|
B|-----------------|-----------------|-----------------|-----------------|
G|-5-5-5-9-9-9-7-7-|-7-7-7-7-7-7-7-7-|-5-5-5-------7-7-|-7-7-7-7-7-7-7-7-|
D|-5-5-5-9-9-9-7-7-|-7-7-7-7-7-7-7-7-|-5-5-5-5-5-5-7-7-|-7-7-7-7-7-7-7-7-|
A|-3-3-3-7-7-7-5-5-|-5-5-5-5-5-5-5-5-|-3-3-3-5-5-5-5-5-|-5-5-5-5-5-5-5-5-|
E|-----------------|-----------------|-------3-3-3-----|-----------------|
 1 + 2 + 3 + 4 +   1 + 2 + 3 + 4 +   1 + 2 + 3 + 4 +   1 + 2 + 3 + 4 +  

   C5    E5    D5                      A5    B5    E5  
e|-----------------|-----------------|-----------------|-----------------|
B|-----------------|-----------------|-----------------|-----------------|
G|-5-5-5-9-9-9-7-7-|-7-7-7-7-7-7-7-7-|-------------9-9-|-9-9-9-9-9-9-9-9-|
D|-5-5-5-9-9-9-7-7-|-7-7-7-7-7-7-7-7-|-7-7-7-5-5-5-9-9-|-9-9-9-9-9-9-9-9-|
A|-3-3-3-7-7-7-5-5-|-5-5-5-5-5-5-5-5-|-7-7-7-5-5-5-7-7-|-7-7-7-7-7-7-7-7-|
E|-----------------|-----------------|-5-5-5-7-7-7-----|-----------------|
 1 + 2 + 3 + 4 +   1 + 2 + 3 + 4 +   1 + 2 + 3 + 4 +   1 + 2 + 3 + 4 +