4/10

DIFFICULTY

STANDARD TUNING

NO CAPO

Guitar Chord & Songwriting Cheat Sheet

GUITARZERO2HERO FREEBIE:

CHORD & SONGWRITING CHEAT SHEET

MASTER OVER 200+ CHORDS & MORE - YOU'LL ALSO RECEIVE THE LATEST NEWS & UPDATES FROM GUITARZERO2HERO

Welcome to this Yesterday Guitar Tutorial by The Beatles!
This is without a doubt one of the most beautiful songs ever written – pure genius by Paul Mccartney & John Lennon. It’s such a fun song to play and only has 2 chord progressions to learn, although they are more complex than your typical 4 chords.

In this tutorial I teach you 2 different ways of playing this song.

1. Studio version – how Paul Mccartney actually plays it
2. Standard tuning version – for those who can’t be bothered detuning

I based the first version off a live performance that Paul did of the song, you can watch that here – https://www.youtube.com/watch?v=8Ud4KiMQRrQ
Both version are roughly the same in difficulty, although I’d say the first version is easier and sounds the best.

My friend and amazing artist Toogla has provided vocals for the playthough at the end of the song. Check his youtube channel out and hit subscribe‚ĖļTOOGLA’s CHANNEL – http://bit.ly/2X4CQux

Enjoy! Like this #yesterday video by #thebeatles #paulmccartney and subscribe to the channel for more videos in the future!

-Dave Tran (Your online guitar teacher ūüėĀ)

-------------------------------------------
      STUDIO VERSION - FULL STEP DOWN
-------------------------------------------
SONG STRUCTURE:
Intro
Verse x2
Chorus
Verse 
Chorus
Verse
Outro

[Intro]
   F                 
e|---3-3-3---3-3-3-|---3-3-3---3-3-3-|
B|---3-3-3---3-3-3-|---3-3-3---3-3-3-|
G|---0-0-0---0-0-0-|---0-0-0---0-0-0-|
D|-----------------|-----------------|
A|-----------------|-----------------|
E|-3-------3-------|-3-------3-------|
   1 + 2 + 3 + 4 +   1 + 2 + 3 + 4 + 

[Verse]
   G                 F#m     B7        Em          Em/D  C       D
d|---3-3-3---3-3-3-|---2-2-2---2-2-2-|---0-0-0---0---0-|---0-0-0---2-2-2-|
A|---3-3-3---3‚ÄĒ3-3-|---2-2-2---0-0-0-|---0-0-0---0---0-|---1-1-1---3-3-3-|
F|---0-0-0---0-0-0-|---2-2-2---2-2-2-|---0-0-0---0---0-|---0-0-0---2-2-2-|
C|-----------------|-----------------|-2-------2---0---|---------0-------|
G|-----------------|---------2-------|-----------------|-3---------------|
D|-3-------3-------|-2---------------|-----------------|-----------------|
   1 + 2 + 3 + 4 +   1 + 2 + 3 + 4 +   1 + 2 + 3 + 4 +   1 + 2 + 3 + 4 +

   G       G   G/F#  Em      A         C   G
d|---3-3-3---3---3-|---0-0-0---0-0-0-|-0---3-3---3-3-3-|
A|---3-3-3---3---3-|---0-0-0---2-2-2-|-1---3-3---3-3-3-|
F|---0-0-0---0---0-|---0-0-0---2-2-2-|-0---0-0---0-0-0-|
C|-----------------|-----------------|-----------------|
G|-----------------|---------0-------|-3---------------|
D|-3-------3---2---|-0---------------|-----3-3---------|
   1 + 2 + 3 + 4 +   1 + 2 + 3 + 4 +   1 + 2 + 3 + 4 +   


[Chorus]
   F#m     B7        Em  D   C         Am      D         G
d|---2-2-2---2-2-2-|-0---2---3---2-0-|---0-0-0---2-2-2-|---3-3-3---3-3-3-|
A|---2-2-2---0-0-0-|-----------------|---1-1-1---3-3-3-|---3-3-3---3-3-3-|
F|---2-2-2---2-2-2-|-----------------|---2-2-2---2-2-2-|---0-0-0---0-0-0-|
C|-----------------|-2---0-----------|---------0-------|-----------------|
G|---------2-------|---------3---2---|-0---------------|-----------------|
D|-2---------------|-----------------|-----------------|-3-------3-------|
   1 + 2 + 3 + 4 +   1 + 2 + 3 + 4 +   1 + 2 + 3 + 4 +   1 + 2 + 3 + 4 +

   F#m     B7        Em  D   C         Am      D         G
d|---2-2-2---2-2-2-|-0---2---3---2-0-|---0-0-0---2-2-2-|-3---------------|
A|---2-2-2---0-0-0-|-----------------|---1-1-1---3-3-3-|-3---------------|
F|---2-2-2---2-2-2-|-----------------|---2-2-2---2-2-2-|-0---------------|
C|-----------------|-2---0-----------|---------0-------|-----------------|
G|---------2-------|---------3---2---|-0---------------|-----------------|
D|-2---------------|-----------------|-----------------|-3---------------|
   1 + 2 + 3 + 4 +   1 + 2 + 3 + 4 +   1 + 2 + 3 + 4 +   1 + 2 + 3 + 4 +

[Outro]
     Em      A         C   G
d|---0-0-0---0-0-0-|-0---3-3---------|
A|---0-0-0---2-2-2-|-1---3-3---------|
F|---0-0-0---2-2-2-|-0---0-0---------|
C|-----------------|-----------------|
G|---------0-------|-3---------------|
D|-0---------------|-----3-3---------|
   1 + 2 + 3 + 4 +   1 + 2 + 3 + 4 +    
-------------------------------------------
          STANDARD TUNING VERSION
-------------------------------------------
SONG STRUCTURE:
Intro
Verse x2
Chorus
Verse 
Chorus
Verse
Outro

[Intro]
   F                 
e|---1-1-1---1-1-1-|---1-1-1---1-1-1-|
B|---1-1-1---1-1-1-|---1-1-1---1-1-1-|
G|---2-2-2---2-2-2-|---1-1-1---1-1-1-|
D|-----------------|-----------------|
A|-----------------|-----------------|
E|-1-------1-------|-1-------1-------|
   1 + 2 + 3 + 4 +   1 + 2 + 3 + 4 +   

[Verse]
   F                 Em7     A7        Dm          Dm/C  Bb      C
e|---1-1-1---1-1-1-|---0-0-0---0-0-0-|---1-1-1---1---1-|---1-1-1---0-0-0-|
B|---1-1-1---1-1-1-|---0-0-0---2-2-2-|---3-3-3---3---3-|---3-3-3---1-1-1-|
G|---2-2-2---2-2-2-|---0-0-0---0-0-0-|---2-2-2---2---2-|---3-3-3---0-0-0-|
D|-----------------|-----------------|-0-------0-------|-----------------|
A|-----------------|---------0-------|-------------3---|-1-------3-------|
E|-1-------1-------|-0---------------|-----------------|-----------------|
   1 + 2 + 3 + 4 +   1 + 2 + 3 + 4 +   1 + 2 + 3 + 4 +   1 + 2 + 3 + 4 +

   F       F   F/E   Dm      G         Bb  F
e|---1-1-1---1---1-|---1-1-1---3-3-3-|-1---1-1---1-1-1-|
B|---1-1-1---1---1-|---3-3-3---3-3-3-|-3---1-1---1-1-1-|
G|---2-2-2---2---2-|---2-2-2---0-0-0-|-3---2-2---2-2-2-|
D|-----------------|-0---------------|-----------------|
A|-----------------|-----------------|-1---------------|
E|-1-------1---0---|---------3-------|-----1-1---------|
   1 + 2 + 3 + 4 +   1 + 2 + 3 + 4 +   1 + 2 + 3 + 4 +   

[Chorus]
   Em      A7        Dm  C   Bb        Gm6     C         F
e|---0-0-0---0-0-0-|-1---0---1---0---|---0-0-0---0-0-0-|---1-1-1---1-1-1-|
B|---0-0-0---2-2-2-|-3---1---3-----3-|---3-3-3---1-1-1-|---1-1-1---1-1-1-|
G|---0-0-0---0-0-0-|-2---0---3-------|---3-3-3---0-0-0-|---2-2-2---2-2-2-|
D|-----------------|-0---------------|-----------------|-----------------|
A|---------0-------|-----3---1---0---|---------3-------|-----------------|
E|-0---------------|-----------------|-3---------------|-1-------1-------|
   1 + 2 + 3 + 4 +   1 + 2 + 3 + 4 +   1 + 2 + 3 + 4 +   1 + 2 + 3 + 4 +

   Em      A7        Dm  C   Bb        Gm6     C         F
e|---0-0-0---0-0-0-|-1---0---1---0---|---0-0-0---0-0-0-|-1---------------|
B|---0-0-0---2-2-2-|-3---1---3-----3-|---3-3-3---1-1-1-|-1---------------|
G|---0-0-0---0-0-0-|-2---0---3-------|---3-3-3---0-0-0-|-2---------------|
D|-----------------|-0---------------|-----------------|-----------------|
A|---------0-------|-----3---1---0---|---------3-------|-----------------|
E|-0---------------|-----------------|-3---------------|-1---------------|
   1 + 2 + 3 + 4 +   1 + 2 + 3 + 4 +   1 + 2 + 3 + 4 +   1 + 2 + 3 + 4 +


[Outro]
   Dm      G         Bb  F
e|---1-1-1---3-3-3-|-1---1-1---1-1-1-|
B|---3-3-3---3-3-3-|-3---1-1---1-1-1-|
G|---2-2-2---0-0-0-|-3---2-2---2-2-2-|
D|-0---------------|-----------------|
A|-----------------|-1---------------|
E|---------3-------|-----1-1---------|
   1 + 2 + 3 + 4 +   1 + 2 + 3 + 4 +