3.5/10

DIFFICULTY

FLAT TUNING

NO CAPO

Guitar Chord & Songwriting Cheat Sheet

GUITARZERO2HERO FREEBIE:

CHORD & SONGWRITING CHEAT SHEET

MASTER OVER 200+ CHORDS & MORE - YOU'LL ALSO RECEIVE THE LATEST NEWS & UPDATES FROM GUITARZERO2HERO

Welcome to this I Don’t Care (Acoustic) Guitar Tutorial by Ed Sheeran! In this lesson I break down how to play the acoustic version Ed recently released which is much more stripped back and played on the acoustic guitar. The main thing to consider is the fact that the guitar needs to be detuned to flat tuning. Other than that, it’s a super super simple song with a looping fingerpicked chord progression.

Enjoy! Like this #idontcare video by #edsheeran & #justinbieber and subscribe to the channel for more videos in the future!

-Dave Tran (Your online guitar teacher ūüėĀ)

[Main Riff]
    G                                     Em7
eb|----3--3----3--3--|----3--3----3--3--|----3--3----3--3--|----3--3----3--3--|
Bb|----3--3----3--3--|----3--3----3--3--|----3--3----3--3--|----3--3----3--3--|
Gb|----0--0----0--0--|----0--0----0--0--|----0--0----0--0--|----0--0----0--0--|
Db|------------------|------------------|------------------|------------------|
Ab|------------------|------------------|------------------|------------------|
Eb|-3-------3--------|-3-------3--------|-0-------0--------|-0-------0--------| 
    1e+a2e+a3e+a4e+a   1e+a2e+a3e+a4e+a   1e+a2e+a3e+a4e+a   1e+a2e+a3e+a4e+a  

    Cadd9              D                  G
eb|----3--3----3--3--|----2--2----2--2--|----3--3----3--3--|----3--3----------|
Bb|----3--3----3--3--|----3--3----3--3--|----3--3----3--3--|----3--3----------|
Gb|----0--0----0--0--|----2--2----2--2--|----0--0----0--0--|----0--0----------|
Db|------------------|-0-------0--------|------------------|------------------|
Ab|-3-------3--------|------------------|------------------|------------------|
Eb|------------------|------------------|-3-------3--------|-3-------3--------|
    1e+a2e+a3e+a4e+a   1e+a2e+a3e+a4e+a   1e+a2e+a3e+a4e+a   1e+a2e+a3e+a4e+a  


[Bridge]
    G                                     
eb|-------3-X---|
Bb|-------3-X---|
Gb|-------0-X---|
Db|-----0---X---|
Ab|---------X---|
Eb|-3-------X---|