6/10

DIFFICULTY

STANDARD TUNING

CAPO ON 7TH

Guitar Chord & Songwriting Cheat Sheet

GUITARZERO2HERO FREEBIE:

CHORD & SONGWRITING CHEAT SHEET

MASTER OVER 200+ CHORDS & MORE - YOU'LL ALSO RECEIVE THE LATEST NEWS & UPDATES FROM GUITARZERO2HERO

CHORD SHAPES

Welcome to this Here Comes The Sun Guitar Tutorial by The Beatles! I’ve tried my best to ensure this is the only lesson you’ll need to watch in order to learn this song. I go in depth into each of the guitar parts of the song and include onscreen notes so you can see where to pluck up or down which is perhaps the most tricky part of this song.

This song may seem complicated, but in essence it only contains 3 main sections and everything else is a variation of those. So my advice is to nail the main parts and everything else becomes much easier. The secret to playing this song is having a steady strumming rhythm with your strumming hand.

My friend and amazing artist Toogla has provided vocals for the playthough at the end of the song. Check his youtube channel out and hit subscribe

►TOOGLA’s CHANNEL – http://bit.ly/2X4CQux

Enjoy! Like this #herecomesthesun video by #thebeatles and subscribe to the channel for more videos in the future!

-Dave Tran (Your online guitar teacher 😁)

-------------------------------------------
      CAPO ON 7TH FRET
-------------------------------------------
SONG STRUCTURE:
Intro
Chorus
Verse
Chorus
Break 1 
Verse 
Chorus
Break 2
Bridge Part 1 x5
Bridge Part 2
Verse
Chorus x2
Ending

[Intro]
E|--------2-----0--2--------|--------2--0--0-----------|
B|--------3--3-----------3--|-----------------3-----0--|
G|--------2--------------2--|-----------------2-----0--|
D|--------0-----------0-----|--0--0--------0-----0--0--|
A|--------------------------|-----------------------2--|
E|--------------------------|--------------------------|
    1  +  2  +  3  +  4  +     1  +  2  +  3  +  4  +

E|-----------0--0-----------|-----------------0-----0--|
B|-----3-----------3-----0--|--2--0--2--3-----2-----2--|
G|-----0-----------0-----0--|--0--0--0--0-----0-----0--|
D|-----------------------0--|--2-----2-----2-----------|
A|--2-----2-----2-----2-----|--0-----0-----0-----------|
E|--3-----3-----3-----3-----|--------------------------|
    1  +  2  +  3  +  4  +     1  +  2  +  3  +  4  +

E|--------2-----0--2--------|--------2--0--0-----------|
B|--------3--3-----------3--|-----------------3-----0--|
G|--2-----2-----------------|-----------------2-----0--|
D|--0-----0-----------0-----|--0--0--------0-----0--0--|
A|--------------------------|-----------------------2--|
E|--------------------------|--------------------------|
    1  +  2  +  3  +  4  +     1  +  2  +  3  +  4  +

E|-----2-----0--0-----------|-------|
B|-----------------3-----2--|--2----|
G|--0--------------0-----0--|--0----|
D|--0-----0-----0--0--0--2--|--2----|
A|--x-----x-----x-----x--0--|--0----|
E|--3-----3-----3-----3-----|-------|
    1  +  2  +  3  +  4  +    

[Chorus]
E|--------2--0-----2--------|--------2-----0--2--------|
B|--------3--------3-----3--|-----------3--------3--0--|
G|--2-----2-----------------|-----2--------------2--0--|
D|--0-----------------------|-----0--------------0--0--|
A|--------------------------|--------------------------|
E|--------------------------|--------------------------|
    1  +  2  +  3  +  4  +     1  +  2  +  3  +  4  +

E|--------2--0-----2--------|--------------------------|
B|--0-----0-----0--------3--|--3--3--3-----3-----3-----|
G|--0-----0-----0-----0--1--|--1--1--1-----1-----1-----|
D|--0-----0-----0-----0--0--|--0--0--0-----0-----0-----|
A|--x-----------2-----0--2--|--2--2--2-----2-----2-----|
E|--3-----------3--------0--|--0--0--0-----0-----0-----|
    1  +  2  +  3  +  4  +     1  +  2  +  3  +  4  +
      
E|-----2-----0--------------|--------0--------0--------|
B|-----------------3--------|-----3--------3--------3--|
G|--2--------------------2/-|--4--------2--------0-----|
D|--0-----------------------|--------------------------|
A|--------------------------|--------------------------|
E|--------------------------|--------------------------|
    1  +  2  +  3  +  4  +     1  +  2  +  3  +  4  +
      
E|--0--------0--------------|
B|--------3-----3h-2--------|
G|-----2--------------4h-2--|
D|--------------------------|
A|--------------------------|
E|--------------------------|
    1  +  2  +  3  +  4  +    
                                                          
[Verse]
E|--------2-----0--2--------|--------2--0--0-----------|
B|--------3--3-----------3--|-----------------3-----0--|
G|--2-----2--------------2--|-----------------2-----0--|
D|--0-----0-----------0-----|--0--0--------0-----0--0--|
A|--------------------------|-----------------------2--|
E|--------------------------|--------------------------|
    1  +  2  +  3  +  4  +     1  +  2  +  3  +  4  +

E|-----------0--0-----------|-----------------0-----0--|
B|-----3-----------3-----0--|--2--0--2--3-----2-----2--|
G|-----0-----------0-----0--|--0--0--0--0-----0-----0--|
D|-----------------------0--|--2-----2-----2-----------|
A|--2-----2-----2-----2-----|--0-----0-----0-----------|
E|--3-----3-----3-----3-----|--------------------------|
    1  +  2  +  3  +  4  +     1  +  2  +  3  +  4  +

E|--------2-----0--2--------|--------2--0--0-----------|
B|--------3--3-----------3--|-----------------3-----0--|
G|--2-----2-----------------|-----------------2-----0--|
D|--0-----0-----------0-----|--0--0--------0-----0--0--|
A|--------------------------|-----------------------2--|
E|--------------------------|--------------------------|
    1  +  2  +  3  +  4  +     1  +  2  +  3  +  4  +

E|-----2-----0--0-----------|--------------0--0--0--0----|
B|-----------------3-----2--|-----2--2--2--2--2--2--2----|
G|--0--------------0-----0--|-----0--0--0--0--0--0--0----|
D|--0-----0-----0--0--0--2--|-----2--2--2--2--2--2--2----|
A|--x-----x-----x-----x--0--|-----0--0--0--0--0--0--0----|
E|--3-----3-----3-----3-----|----------------------------|
    1  +  2  +  3  +  4  +     1  +  2  +  3  +  4  +

                                                          

[Break 1]                                                                                                              
E|--------2-----0--2--------|-----------------0--------|
B|--------3--3-----------0--|--2--0--2--3-----2-----2--|
G|--2-----2--------------0--|--0-----0--0-----0-----0--|
D|--0-----0-----------------|--2-----2--------2--------|
A|--------------------------|--0-----0--------0--------|
E|--------------------------|--------------------------|
    1  +  2  +  3  +  4  +     1  +  2  +  3  +  4  +

[Break 2]                                                                                                              
E|--------2-----0--2--------|--------------|
B|--------3--3-----------0--|--2-----------|
G|--2-----2--------------0--|--0-----------|
D|--0-----0-----------------|--2-----------|
A|--------------------------|--0-----------|
E|--------------------------|--------------|                                                   
    1  +  2  +  3  +  4  +     1  +  2  +  

                                                          
[Bridge Part 1]
E|-----------|-----------|-----------|-----------------|
B|-----------|--------1--|-----------|-----------------|
G|-----------|-----2-----|--------0--|--------0--------|
D|--------2--|--3--------|-----2-----|-----0-----------|
A|--0--4-----|-----------|--3--------|--2-----------2--|
E|-----------|-----------|-----------|-----------3-----|
    1  +  2     1  +  2     1  +  2     1  +  2  +  3 
            
E|--------2--2--0--2-----0--|--0-----0-----|
B|--------3--3--3--3-----0--|--2--0--2-----|
G|--------2--2--2--2-----0--|--0-----0-----|
D|--0-----0-----------------|--2-----2-----|
A|--------------------------|--0-----0-----|
E|--------------------------|--------------|
    1  +  2  +  3  +  4  +     1  +  2  +
                                                              

[Bridge Part 2]

E|-----------|-----------|-----------|-----------------|
B|-----------|--------1--|-----------|-----------------|
G|-----------|-----2-----|--------0--|--------0--------|
D|--------2--|--3--------|-----2-----|-----0-----------|
A|--0--4-----|-----------|--3--------|--2-----------2--|
E|-----------|-----------|-----------|-----------3-----|
    1  +  2     1  +  2     1  +  2     1  +  2  +  3 

E|--------2--2--0--2-----0--|--------------------------|
B|--------3--3--3--3-----2--|-----2--2-----2--0--2--3--|
G|--------2--2--2--2-----0--|-----0--0-----0--0--0--0--|
D|--0-----0--------------2--|-----2--2-----2--2--2--2--|
A|-----------------------0--|--------0-----0--0--0--0--|
E|--------------------------|--------------------------|
    1  +  2  +  3  +  4  +     1  +  2  +  3  +  4  +  

E|-----------------------0--|-----0--0-----0--0--0--3--|
B|-----3--3-----3--2--3--2--|-----2--2-----2--2--2--2--|
G|-----0--0-----0--0--0--0--|-----0--0-----0--0--0--0--|
D|-----2--2-----2--2--2--2--|-----2--2-----2--2--2--2--|
A|--------0-----0--0--0--0--|--------0-----0--0--0--0--|
E|--------------------------|--------------------------|
    1  +  2  +  3  +  4  +     1  +  2  +  3  +  4  + 
                                           
E|-----3--3--3--3-----3-----|
B|-----2--2--2--2-----2-----|
G|-----0--0--0--0-----0-----|
D|-----2--2--2--2-----2-----|
A|-----0--0--0--0-----0-----|
E|--------------------------|
    1  +  2  +  3  +  4  + 
                                                          

[Ending]                                                        
E|--0--------0--------------|--------2-----0--2--------|
B|--------3-----3h-2--------|--------3--3--------------|
G|-----2--------------4h-2--|--2-----2--------------2/-|
D|--------------------------|--0-----0-----------------|
A|--------------------------|--------------------------|
E|--------------------------|--------------------------|
    1  +  2  +  3  +  4  +     1  +  2  +  3  +  4  + 
                                                          
E--------0--------0---------|--0--------0--------------|
B-----3--------3--------3---|--------3-----3h-2--------|
G--4--------2--------0------|-----2--------------4h-2--|
D---------------------------|--------------------------|
A---------------------------|--------------------------|
E---------------------------|--------------------------|
    1  +  2  +  3  +  4  +     1  +  2  +  3  +  4  + 

E|--------------------------|-----------2--------------||
B|--------1-----------------|-----------3--------------||
G|-----2-----------0--------|--0--------2--------------||
D|--3-----------2--------0--|-----------0--------------||
A|-----------3--------2-----|--------2--0--------------||
E|--------------------------|-----3--------------------||
    1  +  2  +  3  +  4  +     1  +  2  +  3  +  4  +