3/10

DIFFICULTY

STANDARD TUNING

NO CAPO

Guitar Chord & Songwriting Cheat Sheet

GUITARZERO2HERO FREEBIE:

CHORD & SONGWRITING CHEAT SHEET

MASTER OVER 200+ CHORDS & MORE - YOU'LL ALSO RECEIVE THE LATEST NEWS & UPDATES FROM GUITARZERO2HERO

CHORD SHAPES

Welcome to this Cross Me Guitar Tutorial by Ed Sheeran Chance The Rapper & PnB Rock! This is the latest single from his upcoming collaborations album and I can’t wait to hear the rest when it’s released. This is a super simple song to play and just has the same chord progression repeated again and again throughout the whole song. In this video i’ll teach you 2 different versions.

1. No capo version
2. Easier version – no barre chords (Capo required on 4th)

My friend and amazing artist Toogla has provided vocals for the playthough at the end of the song. Check his youtube channel out and hit subscribe

►TOOGLA’s CHANNEL & COVER – http://bit.ly/2K6AcRk

Enjoy! Like this #crossme video by #edsheeran #chancetherapper #pnbrock and subscribe to the channel for more videos in the future!

-Dave Tran (Your online guitar teacher 😁)

[Typical Chord Progression]
| E | F# | G#m | F# |

   E                                 F#
e|---------X---------------X-------|---------X---------------X-------|
B|---------X---------------X-------|---------X---------------X-------|
G|-1-------X-----1-----1---X-------|-3-------X-----3-----3---X-------|
D|-2-------X-----2-----2---X-------|-4-------X-----4-----4---X-------|
A|---------X---------------X-------|---------X---------------X-------|
E|-0-------X---0-----0-----X-------|-2-------X---2-----2-----X-------|
   1 e + a 2 e + a 3 e + a 4 e + a   1 e + a 2 e + a 3 e + a 4 e + a
   G#m                               F#
e|---------X---------------X-------|---------X---------------X-------|
B|---------X---------------X-------|---------X---------------X-------|
G|-4-------X-----4-----4---X-------|-3-------X-----3-----3---X-------|
D|-6-------X-----6-----6---X-------|-4-------X-----4-----4---X-------|
A|---------X---------------X-------|---------X---------------X-------|
E|-4-------X---4-----4-----X-------|-2-------X---2-----2-----X-------|
   1 e + a 2 e + a 3 e + a 4 e + a   1 e + a 2 e + a 3 e + a 4 e + a

-------------------------------------
     EASIER CHORDS - CAPO ON 4TH 
-------------------------------------

[Typical Chord Progression]
| C | D | E#m | D |

   C                                 D
e|---------X---------------X-------|---------X---------------X-------|
B|---------X---------------X-------|---------X---------------X-------|
G|-0-------X-----0-----0---X-------|-0-------X-----0-----0---X-------|
D|-2-------X-----2-----2---X-------|-4-------X-----4-----4---X-------|
A|-3-------X---3-----3-----X-------|-5-------X---5-----5-----X-------|
E|---------X---------------X-------|---------X---------------X-------|
   1 e + a 2 e + a 3 e + a 4 e + a   1 e + a 2 e + a 3 e + a 4 e + a
   Em                                D
e|---------X---------------X-------|---------X---------------X-------|
B|---------X---------------X-------|---------X---------------X-------|
G|-0-------X-----0-----0---X-------|-0-------X-----0-----0---X-------|
D|-2-------X-----2-----2---X-------|-4-------X-----4-----4---X-------|
A|---------X---------------X-------|-5-------X---5-----5-----X-------|
E|-0-------X---0-----0-----X-------|---------X---------------X-------|
   1 e + a 2 e + a 3 e + a 4 e + a   1 e + a 2 e + a 3 e + a 4 e + a