2/10

DIFFICULTY

STANDARD TUNING

NO CAPO

Guitar Chord & Songwriting Cheat Sheet

GUITARZERO2HERO FREEBIE:

CHORD & SONGWRITING CHEAT SHEET

MASTER OVER 200+ CHORDS & MORE - YOU'LL ALSO RECEIVE THE LATEST NEWS & UPDATES FROM GUITARZERO2HERO

CHORD SHAPES

Welcome to this Sunflower Guitar Tutorial by Post Malone & Swae Lee! This song from the Spiderman movie has been a massive hit, and is a really easy song to listen to. It’s got a super simple chord progression, easy strumming pattern and no barre chords – so it is the PERFECT song for beginners on the guitar to learn. I’ll also teach you how to play the picked parts in the song that sounds super lush.

My friend and amazing artist Toogla has provided vocals for the playthough at the end of the song. Check his music out https://spoti.fi/2WMetSq

Enjoy! Like this #sunflower video by #postmalone #swaelee and subscribe to the channel for more videos in the future!

-Dave Tran (Your online guitar teacher ūüėĀ)

[Intro]
               D
Ayy, ayy, ayy, ayy (Ooh)
               G
Ooh, ooh, ooh, ohh (Ooh)
     Em7
Ayy, ayy
               G
Ooh, ooh, ooh, ohh


[Verse 1]
D
Needless to say, I keep it in check

She was all bad-bad, nevertheless (Yeah)
G
Callin' it quits now, baby, I'm a wreck (Wreck)

Crash at my place, baby, you're a wreck (Wreck)
Em7
Needless to say, I'm keeping her in check

She was all bad-bad, nevertheless
G
Callin' it quits now, baby, I'm a wreck

Crash at my place, baby, you're a wreck

[Pre Chorus]
D
Thinkin' in a bad way, losin' your grip

Screamin' at my face, baby don't trip
G
Someone took a big L, don't know how that felt

Lookin' at you sideways, party on tilt
Em7
Ooh-ooh, some things you just can't refuse
          G
She wanna ride me like a cruise and I'm not tryna lose

   D                                   G
e|-2---------------|-----------------|-3---------------|-----------------|
B|-3---------------|-----------------|-3---------------|-----------------|
G|-2---------------|-----------------|-0---------------|-----------------|
D|-0---------------|-----------------|-0---------------|-----------------|
A|-----------------|-----------------|-2---------------|-----------------|
E|-----------------|-----------------|-3---------------|-----------------|
   1 + 2 + 3 + 4 +   1 + 2 + 3 + 4 +   1 + 2 + 3 + 4 +   1 + 2 + 3 + 4 +
   Em7                                 G
e|-----------------|-----------------|-----------------|-----------------|
B|-------3---------|-------3---------|-------3---0-----|-----------------|
G|-----------0-----|----------0------|-----0---------0-|-----------------|
D|-----2---------2-|-----2-----------|---0-------------|-----------------|
A|---2-------------|---2-------------|-----------------|-----------------|
E|-0---------------|-0---------------|-3---------------|-----------------|
   1 + 2 + 3 + 4 +   1 + 2 + 3 + 4 +   1 + 2 + 3 + 4 +   1 + 2 + 3 + 4 +

[Chorus]
D
 Then you're left in the dust unless I stuck by ya
G
 You're a sunflower, I think your love would be too much
Em7
 Or you'll be left in the dust, unless I stuck by ya
G
 You're the sunflower, you're the sunflower


[Verse 2]
D
Every time I'm leavin' on ya (ooh), you don't make it easy, no, no
G                                                 Em7
Wish I could be there for ya, give me a reason to go

Every time I'm walkin' out, I can hear you tellin' me to turn around
G
Fightin' for my trust and you won't back down

Even if we gotta risk it all right now, oh
D
I know you're scared of the unknown (-Known)

You don't wanna be alone (Alone)
G
I know I always come and go (And go)
                        D
But it's out of my control


[Chorus]

 And you'll be left in the dust, unless I stuck by ya
G
 You're the sunflower, I think your love would be too much
Em7
 Or you'll be left in the dust, unless I stuck by ya
G
You're the sunflower, you're the sunflower, yeah


[Outro]
   Dsus2                               G
e|-------0---------|-----------------|-----------------|-----------------|
B|-----3-----3-----|-------3---------|-------3---0-----|-----------------|
G|---2-----------2-|---2-------2-----|-----0---------0-|-----------------|
D|-0---------------|-0---0-------0---|---0-------------|-----------------|
A|-----------------|-----------------|-----------------|-----------------|
E|-----------------|---------------0-|-3---------------|-----------------|
   1 + 2 + 3 + 4 +   1 + 2 + 3 + 4 +   1 + 2 + 3 + 4 +    1 + 2 + 3 + 4 +