3.5/10

DIFFICULTY

STANDARD TUNING

CAPO ON 6TH

Guitar Chord & Songwriting Cheat Sheet

GUITARZERO2HERO FREEBIE:

CHORD & SONGWRITING CHEAT SHEET

MASTER OVER 200+ CHORDS & MORE - YOU'LL ALSO RECEIVE THE LATEST NEWS & UPDATES FROM GUITARZERO2HERO

Welcome to this I Don’t Care Guitar Tutorial by Ed Sheeran & Justin Bieber! It’s great to hear Justin back with some new music. This song isn’t very guitar focused, but despite this it’s still fun to play and has a cool tropical pop vibe to it. In this lesson i’ll teach you 2 different ways of playing this song.

1. Easy strummed chords
2. Fingerpicked version (more chilled and laid back)

You can use a mix of the two if you’d like. At the end of the video I do a quick playthrough of both.

Enjoy! Like this #idontcare video by #edsheeran & #justinbieber and subscribe to the channel for more videos in the future!

-Dave Tran (Your online guitar teacher ūüėĀ)

[Verse 1]
C
  I'm at a party I don't wanna be at
                                      Am
And I don't ever wear a suit and tie, yeah
Wonderin' if I could sneak out the back
                               F
Nobody's even lookin' me in my eyes
                      G                                            
Can you take my hand, finish my drink, say, "shall we dance?"
     C
Hell yeah, you know I love ya, did I ever tell ya?
You make it better like that

[Pre-Chorus 1]
C
  Don't think I fit in at this party
Am
    Everyone's got so much to say, yeah
F                          G
  I always feel like I'm nobody, mmm
C
  Who wants to fit in anyway?


[Chorus 1]
               C
'Cause I don't care when I'm with my baby, yeah
                       Am 
All the bad things disappear                     
And you're makin' me feel like maybe I am somebody
F
  I can deal with the bad nights
G                          C
  When I'm with my baby, yeah, ooh ooh-ooh ooh oooh ooh
               C
'Cause I don't care as long as you just hold me near
                   Am
You can take me anywhere
And you're makin' me feel like I'm loved by somebody
F
  I can deal with the bad nights
G                          C
  When I'm with my baby, yeah, ooh ooh-ooh ooh oooh ooh

[Verse 2]
N.C.
     We at a party we don't wanna be at
C                                 Am
  Tryna talk but we can't hear ourselves
                          
Press your lips, I'd rather kiss 'em right back
                                      F
With all these people all around, I'm crippled with anxiety
        G
But I'm sold, it's where we're s'posed to be
         C
You know what, it's kinda crazy 'cause I really don't mind
And you make it better like that


[Pre-Chorus 2]
C
  Don't think we fit in at this party
Am
    Everyone's got so much to say, oh yeah yeah
F                               G
  When we walked in, I said I'm sorry, mmm-mm
C                                N.C.
  But now I think that we should stay


[Chorus 2]
               C
'Cause I don't care when I'm with my baby, yeah
                       Am 
All the bad things disappear
                              
And you're makin' me feel like maybe I am somebody
F
  I can deal with the bad nights
G                          C
  When I'm with my baby, yeah, ooh ooh-ooh ooh oooh ooh
               C
'Cause I don't care as long as you just hold me near
                   Am
You can take me anywhere

And you're makin' me feel like I'm loved by somebody
F
  I can deal with the bad nights
G                          C
  When I'm with my baby, yeah, ooh ooh-ooh ooh oooh ooh (no)


[Bridge]
C
  I don't like nobody but it's, like you're the only one here
  I don't like nobody but you, baby, I don't care
  I don't like nobody but you, I hate everyone here
  I don't like nobody but you, baby, yeah


[Chorus 3]
               C
'Cause I don't care (don't care) when I'm with my baby, yeah (oh yeah)
                       Am 
All the bad things disappear (disappear)
                              
And you're makin' me feel like maybe I am somebody (maybe I'm somebody)
F
  I can deal with the bad nights (with the bad nights)
G                          C
  When I'm with my baby, yeah, ooh ooh-ooh ooh oooh ooh
               C
'Cause I don't care as long as you just hold me near (me near)
                   Am
You can take me anywhere (anywhere)

And you're makin' me feel like I'm loved by somebody (I'm loved by somebody)
F
  I can deal with the bad nights
G                          C
  When I'm with my baby, yeah, ooh ooh-ooh ooh oooh ooh

[Intro]
   C
e|---------------------------------|---------------------------------|
B|-------1---------------1---------|-------1---------------1---------|
G|-----------0---0-----------0---0-|-----------0---0-----------0---0-|
D|-----2-------2-------2-------2---|-----2-------2-------2-------2---|
A|-3---------------3---------------|-3---------------3---------------|
E|---------------------------------|---------------------------------|
   1 e + a 2 e + a 3 e + a 4 e + a   1 e + a 2 e + a 3 e + a 4 e + a

[Main Chord Progression]
   C
e|---------------------------------|---------------------------------|
B|-------1---------------1---------|-------1---------------1---------|
G|-----------0---0-----------0---0-|-----------0---0-----------0---0-|
D|-----2-------2-------2-------2---|-----2-------2-------2-------2---|
A|-3---------------3---------------|-3---------------3---------------|
E|---------------------------------|---------------------------------|
   1 e + a 2 e + a 3 e + a 4 e + a   1 e + a 2 e + a 3 e + a 4 e + a
   Am
e|---------------------------------|---------------------------------|
B|-------1---------------1---------|-------1---------------1---------|
G|-----------2---2-----------2---2-|-----------2---2-----------2---2-|
D|-----2-------2-------2-------2---|-----2-------2-------2-------2---|
A|-0---------------0---------------|-0---------------0---------------|
E|---------------------------------|---------------------------------|
   1 e + a 2 e + a 3 e + a 4 e + a   1 e + a 2 e + a 3 e + a 4 e + 
   F                                 G   
e|---------------------------------|---------------------------------|
B|-------1---------------1---------|-------0---------------0---------|
G|-----------2---2-----------2---2-|-----------0---0-----------0---0-|
D|-----3-------3-------3-------3---|-----0-------0-------0-------0---|
A|---------------------------------|---------------------------------|
E|-1---------------1---------------|-3---------------3---------------|
   1 e + a 2 e + a 3 e + a 4 e + a   1 e + a 2 e + a 3 e + a 4 e + a
   C
e|---------------------------------|---------------------------------|
B|-------1---------------1---------|-------1---------------1---------|
G|-----------0---0-----------0---0-|-----------0---0-----------0---0-|
D|-----2-------2-------2-------2---|-----2-------2-------2-------2---|
A|-3---------------3---------------|-3---------------3---------------|
E|---------------------------------|---------------------------------|
   1 e + a 2 e + a 3 e + a 4 e + a   1 e + a 2 e + a 3 e + a 4 e + a