5/10

DIFFICULTY

STANDARD TUNING

NO CAPO

Guitar Chord & Songwriting Cheat Sheet

GUITARZERO2HERO FREEBIE:

CHORD & SONGWRITING CHEAT SHEET

MASTER OVER 200+ CHORDS & MORE - YOU'LL ALSO RECEIVE THE LATEST NEWS & UPDATES FROM GUITARZERO2HERO

Welcome to this I Love You Guitar Tutorial by Billie Eilish!
This has a really great and haunting sounding fingerpicking riff which works so well on the acoustic guitar! The other great thing is that it just requires a guitar in standard tuning and no capo! In the video i’ll teach you 2 different ways of playing the song

  1. Fingerpicked studio version – note for note
  2. Easy strummed version for the beginners

A big thank you to Amanda again for her beautiful vocals in the song playthrough at the end of the video. You can check out her youtube channel here – https://www.youtube.com/user/XxMissAmandaLeexX

Enjoy! Like this #iloveyou video by #billieeilish and subscribe to the channel for more videos in the future!

-Dave Tran (Your online guitar teacher 😁)


[Lead in]
e|----------------|
B|----------------|
G|---------------2|
D|-------------3--|
A|----------------|
E|----------------|
   1 + 2 + 3 + 4 +

[Verse]
   Fmaj7b5
e|---------0------|---------0------|---------0------|---------0------|
B|-0--------------|-0--------------|-0--------------|-0--------------|
G|-------2-------2|-------2-------2|-------2-------2|-------2-------2|
D|-----3-------3--|-----3-------3--|-----3-------3--|-----3-------3--|
A|----------------|----------------|----------------|----------------|
E|-1--------------|----------------|----------------|----------------|
   1 + 2 + 3 + 4 +  1 + 2 + 3 + 4 +  1 + 2 + 3 + 4 +  1 + 2 + 3 + 4 + 
   Cmaj7
e|---------0------|---------0------|---------0------|---------0------|
B|-0--------------|-0--------------|-0--------------|-0--------------|
G|-------0-------0|-------0-------0|-------0-------0|-------0-------0|
D|-----2-------2--|-----2-------2--|-----2-------2--|-----2-------2--|
A|-3--------------|----------------|----------------|----------------|
E|----------------|----------------|----------------|----------------|
   1 + 2 + 3 + 4 +  1 + 2 + 3 + 4 +  1 + 2 + 3 + 4 +  1 + 2 + 3 + 4 + 

[Pre]
   Fmaj7b5
e|----------------|----------------|----------------|----------------|
B|----------------|-0-------0------|-1-------1------|-3-------3------|
G|-2-------2------|----------------|----------------|----------------|
D|-------3-------3|-------3-------3|-------3-------0|-------0-------0|
A|-----3-------3--|-----3-------3--|-----3-------3--|-----3-------3--|
E|-1--------------|----------------|----------------|----------------|
   1 + 2 + 3 + 4 +  1 + 2 + 3 + 4 +  1 + 2 + 3 + 4 +  1 + 2 + 3 + 4 + 
   Cmaj7
e|----------------|-0-------0------|-1-------1------|-3-------3------|
B|-3-------3------|----------------|----------------|----------------|
G|-------0-------0|-------0-------0|-------0-------0|-------0--------|
D|-----0-------0--|-----0-------0--|-----0-------0--|-----0----------|
A|----------------|----------------|----------------|----------------|
E|-3--------------|----------------|----------------|----------------|
   1 + 2 + 3 + 4 +  1 + 2 + 3 + 4 +  1 + 2 + 3 + 4 +  1 + 2 + 3 + 4 + 

[Chorus]
   Am                                Asus2
e|----------------|----------------|----------------|----------------|
B|-1-------1------|-1-------1------|-0-------0------|-0-------0------|
G|-------2-------2|-------2-------2|-------2-------2|-------2--------|
D|-----2-------2--|-----2-------2--|-----2-------2--|-----2----------|
A|-0--------------|----------------|----------------|----------------|
E|----------------|----------------|----------------|----------------|
   1 + 2 + 3 + 4 +  1 + 2 + 3 + 4 +  1 + 2 + 3 + 4 +  1 + 2 + 3 + 4 + 
   C                                 Cmaj7
e|----------------|----------------|----------------|----------------|
B|-1-------1------|-1-------1------|-0-------0------|-0-------0------|
G|-------0-------0|-------0-------0|-------0-------0|-------0--------|
D|-----2-------2--|-----2-------2--|-----2-------2--|-----2----------|
A|-3--------------|----------------|----------------|----------------|
E|----------------|----------------|----------------|----------------|
   1 + 2 + 3 + 4 +  1 + 2 + 3 + 4 +  1 + 2 + 3 + 4 +  1 + 2 + 3 + 4 + 
   F                                 Fmaj7b5
e|----------------|----------------|----------------|----------------|
B|-1-------1------|-1-------1------|-0-------0------|-0-------0------|
G|-------2-------2|-------2-------2|-------2-------2|-------2--------|
D|-----3-------3--|-----3-------3--|-----3-------3--|-----3----------|
A|----------------|----------------|----------------|----------------|
E|-1--------------|----------------|----------------|----------------|
   1 + 2 + 3 + 4 +  1 + 2 + 3 + 4 +  1 + 2 + 3 + 4 +  1 + 2 + 3 + 4 + 
   Cmaj7
e|---------0------|---------0------|---------0------|---------0------|
B|-0--------------|-0--------------|-0--------------|-0--------------|
G|-------0-------0|-------0-------0|-------0-------0|-------0-------0|
D|-----2-------2--|-----2-------2--|-----2-------2--|-----2-------2--|
A|-3--------------|----------------|----------------|----------------|
E|----------------|----------------|----------------|----------------|
   1 + 2 + 3 + 4 +  1 + 2 + 3 + 4 +  1 + 2 + 3 + 4 +  1 + 2 + 3 + 4 + 

[Bridge]
   Dm                                Em
e|---------1------|-1-------1------|---------0------|-0--------------|
B|-3-----2-------2|-------2-------2|-0-----0-------0|----------------|
G|-----3-------3--|-----3-------3--|-----0-------0--|----------------|
D|-0--------------|----------------|----------------|----------------|
A|----------------|----------------|----------------|----------------|
E|----------------|----------------|-0--------------|----------------|
   1 + 2 + 3 + 4 +  1 + 2 + 3 + 4 +  1 + 2 + 3 + 4 +  1 + 2 + 3 + 4 + 
   F                                 Fmaj7b5
e|---------0------|---------0------|---------0------|----------------|
B|-1--------------|-1--------------|-0--------------|-0--------------|
G|-------2-------2|-------2-------2|-------2-------2|----------------|
D|-----3-------3--|-----3-------3--|-----3-------3--|----------------|
A|----------------|----------------|----------------|----------------|
E|-1--------------|----------------|----------------|----------------|
   1 + 2 + 3 + 4 +  1 + 2 + 3 + 4 +  1 + 2 + 3 + 4 +  1 + 2 + 3 + 4 + 

[Soft Prechorus]
   Fmaj7b5
e|----------------|----------------|----------------|----------------|
B|----------------|-0--------------|-1--------------|-3--------------|
G|-2--------------|----------------|----------------|----------------|
D|----------------|----------------|----------------|----------------|
A|----------------|----------------|----------------|----------------|
E|-1--------------|----------------|----------------|----------------|
   1 + 2 + 3 + 4 +  1 + 2 + 3 + 4 +  1 + 2 + 3 + 4 +  1 + 2 + 3 + 4 + 
   Cmaj7
e|----------------|-0-------0------|-1-------1------|-3-------3------|
B|-3-------3------|----------------|----------------|----------------|
G|-------0-------0|-------0-------0|-------0-------0|-------0--------|
D|-----0-------0--|-----0-------0--|-----0-------0--|-----0----------|
A|----------------|----------------|----------------|----------------|
E|-3--------------|----------------|----------------|----------------|
   1 + 2 + 3 + 4 +  1 + 2 + 3 + 4 +  1 + 2 + 3 + 4 +  1 + 2 + 3 + 4 + 

[Soft Chorus]
   Am                                Asus2
e|----------------|----------------|----------------|----------------|
B|-1--------------|----------------|-0--------------|----------------|
G|----------------|---------------2|----------------|----------------|
D|----------------|-------------2--|----------------|----------------|
A|-0--------------|----------------|----------------|----------------|
E|----------------|----------------|----------------|----------------|
   1 + 2 + 3 + 4 +  1 + 2 + 3 + 4 +  1 + 2 + 3 + 4 +  1 + 2 + 3 + 4 + 
   C                                 Cmaj7
e|----------------|----------------|----------------|----------------|
B|-1-------1------|---------1h3----|-0--------------|----------------|
G|----------------|-------0--------|----------------|----------------|
D|----------------|-----2----------|----------------|----------------|
A|-3--------------|----------------|----------------|----------------|
E|----------------|----------------|----------------|----------------|
   1 + 2 + 3 + 4 +  1 + 2 + 3 + 4 +  1 + 2 + 3 + 4 +  1 + 2 + 3 + 4 + 
   F                                 Fmaj7b5
e|----------------|----------------|----------------|-0--------------|
B|-1--------------|----------------|-0--------------|----------------|
G|----------------|---------------2|----------------|----------------|
D|----------------|-------------3--|----------------|----------------|
A|----------------|----------------|----------------|----------------|
E|-1--------------|----------------|----------------|----------------|
   1 + 2 + 3 + 4 +  1 + 2 + 3 + 4 +  1 + 2 + 3 + 4 +  1 + 2 + 3 + 4 + 
   Cmaj7
e|---------0------|---------0------|---------0------|---------0------|
B|-0--------------|-0--------------|-0--------------|-0--------------|
G|-------0-------0|-------0-------0|-------0-------0|-------0-------0|
D|-----2-------2--|-----2-------2--|-----2-------2--|-----2-------2--|
A|-3--------------|----------------|----------------|----------------|
E|----------------|----------------|----------------|----------------|
   1 + 2 + 3 + 4 +  1 + 2 + 3 + 4 +  1 + 2 + 3 + 4 +  1 + 2 + 3 + 4 + 

[Intro]
Fmaj7 Cmaj7

[Verse 1]
Fmaj7
It's not true
                   Cmaj7
Tell me I’ve been lied to
               Fmaj7     Cmaj7
Crying isn't like you, ooh
 Cmaj7   Fmaj7
What the hell did I do?
                 Cmaj7
Never been the type to
                   Fmaj7        Cmaj7
Let someone see right through, ooh

[Pre Chorus]
Fmaj7
Baby, won't you take it back?
Say you were tryna make me laugh
    G
And nothing has to change today           
You didn’t mean to say 

[Chorus]
        Am    Asus2
"I love you"
     C    Cmaj7                 Fmaj7      Cmaj7
I love you     and I don't want to, ooh

[Verse 2]
Fmaj7
Up all night
            Cmaj7
On another red-eye
                     Fmaj7       Cmaj7
We wish we never learned to fly high
Fmaj7
Maybe we should just try
                      Cmaj7
To tell ourselves a good lie
                     Fmaj7     Cmaj7
I didn't mean to make you cry, I

[Pre Chorus]
Fmaj7
Baby, won't you take it back?
Say you were tryna make me laugh
    G
And nothing has to change today           
You didn’t mean to say 

[Chorus]
        Am    Asus2
"I love you"
     C    Cmaj7                 Fmaj7      Cmaj7
I love you     and I don't want to, ooh

[Bridge]
     Dm
The smile that you gave me
        G                   Fmaj7
Even when you felt like dying

[Pre Chorus]
Fmaj7
Baby, won't you take it back?
Say you were tryna make me laugh
    G
And nothing has to change today           
You didn’t mean to say 

[Chorus]
        Am    Asus2
"I love you"
     C    Cmaj7                 Fmaj7      Cmaj7
I love you     and I don't want to, ooh
Fmaj7      Cmaj7
Ooh,    ooh
Fmaj7      Cmaj7
Ooh,    ooh