3/10

DIFFICULTY

STANDARD TUNING

CAPO ON 1ST

Guitar Chord & Songwriting Cheat Sheet

GUITARZERO2HERO FREEBIE:

CHORD & SONGWRITING CHEAT SHEET

MASTER OVER 200+ CHORDS & MORE - YOU'LL ALSO RECEIVE THE LATEST NEWS & UPDATES FROM GUITARZERO2HERO

CHORD SHAPES

Welcome to this Someone You Loved Guitar Tutorial by Lewis Capaldi!
This song is an emotional banger and has some incredible vocals. Musically speaking it’s a very simple song with one main chord progression throughout except for the bridge. The song is originally played on piano, however in this lesson i’ll teach you 2 versions of playing this song.

  1. Fingerpicked version (sounds similar to the piano)
  2. East strummed version

My good friend @emilebattour has lended his incredible vocals for this song. Check him out on instagram.

Enjoy! Like this #someoneyouloved video by #lewiscapaldi and subscribe to the channel for more videos in the future!

-Dave Tran (Your online guitar teacher ūüėĀ)

------------------------------------------------------
                  CAPO ON 1ST FRET
------------------------------------------------------

[Intro]

C   G   Am   F

[Verse 1]
 C                       G                             Am        F
I'm going under and this time I feel, there's no one to save me
  C                        G                            Am       F
This all or nothing really got away, you're driving me crazy
                   C                  G                Am                F
I need somebody to heal, somebody to know, somebody to have, somebody to hold
             C                       G
It's easy to say but it's never the same
                  Am                                F
I guess I kinda liked the way you numbed all the pain


[Chorus]
               C
Now the day bleeds
          G
Into nightfall
                  Am
And you're not here
                       F
To get me through it all
               C
I let my guard down
                         G
And then you pulled the rug
                     Am                          F
I was getting kinda used to being someone you loved


[Verse 2]
  C                        G                           Am      F
I'm going under and this time I feel there's no one to turn to
  C                         G                         Am       F
This all or nothing way of loving got me sleeping without you
                         C                G                Am                         F
Now, I need somebody to know, somebody to heal, somebody to have, just to know how it feels
              C                     G
It's easy to say but it's never the same
                  Am                          F
I guess I kinda liked the way you helped me escape


[Chorus]
               C
Now the day bleeds
          G
Into nightfall
                  Am
And you're not here
                       F
To get me through it all
               C
I let my guard down
                         G
And then you pulled the rug
                     Am                          F
I was getting kinda used to being someone you loved


[Bridge]
    Dm             Am                G
And I tried to close my eyes but it hurts sometimes
  G       Am     Dm           Am                          G
I fall into your arms. I feel safe with your sound till you come back around


[Chorus]
               C
Now the day bleeds
          G
Into nightfall
                  Am
And you're not here
                       F
To get me through it all
               C
I let my guard down
                         G
And then you pulled the rug
                     Am                          F
I was getting kinda used to being someone you loved


               C
Now the day bleeds
          G
Into nightfall
                  Am
And you're not here
                       F
To get me through it all
               C
I let my guard down
                         G
And then you pulled the rug
                     Am                          F
I was getting kinda used to being someone you loved

                C
I let my guard down
                         G
And then you pulled the rug
                    Am                          F
I was getting kinda used to being someone you loved

C
------------------------------------------------------
                  CAPO ON 1ST FRET
------------------------------------------------------

[Main Riff]
   C                 G                 Am                F   
E|-0---0---0---0---|-----------------|-----------------|-----------------|
B|-----------------|-0---0---0---0---|-1---1---1---1---|-----------------|
G|---0---0---0---0-|-----------------|-----------------|-2---2---2---2---|
D|-----------------|---0---0---0---0-|---2---2---2---2-|-----------------|
A|-3---------------|-----------------|-0---------------|---3---3---3---3-|
E|-----------------|-3---------------|-----------------|-1---------------|
   1 + 2 + 3 + 4 +   1 + 2 + 3 + 4 +   1 + 2 + 3 + 4 +   1 + 2 + 3 + 4 +


[Riff Variation]
   C                 G                 Am                F   
E|-0---0---0---0---|-----------------|-----------------|-----------------|
B|-----------------|-0---0---0---0---|-1---1---1---1---|-----------------|
G|---0---0---0---0-|-----------------|-----------------|-2---2---2---0---|
D|-----------------|---0---0---0---0-|---2---2---2---2-|-----------------|
A|-3---------------|-----------------|-0---------------|---3---3---3---3-|
E|-----------------|-3---------------|-----------------|-1---------------|
   1 + 2 + 3 + 4 +   1 + 2 + 3 + 4 +   1 + 2 + 3 + 4 +   1 + 2 + 3 + 4 +

[Bridge]
   Dm                Am                G                 G       Am
E|-1---1---1---1---|-----------------|-----------------|-----------------|
B|-----------------|-1---1---1---1---|-0---0---0---0---|-0---0---1---1---|
G|---2---2---2---2-|-----------------|-----------------|-----------------|
D|-0---------------|---2---2---2---2-|---0---0---0---0-|---0---0---2---2-|
A|-----------------|-0---------------|-----------------|---------0-------|
E|-----------------|-----------------|-3---------------|-3---------------|
   1 + 2 + 3 + 4 +   1 + 2 + 3 + 4 +   1 + 2 + 3 + 4 +   1 + 2 + 3 + 4 +

   Dm                Am                G                 
E|-1---1---1---1---|-----------------|-----------------|-----------------|
B|-----------------|-1---1---1---1---|-0---0---0---0---|-----------------|
G|---2---2---2---2-|-----------------|-----------------|-----------------|
D|-0---------------|---2---2---2---2-|---0---0---0---0-|-----------------|
A|-----------------|-0---------------|-----------------|-----------------|
E|-----------------|-----------------|-3---------------|-----------------|
   1 + 2 + 3 + 4 +   1 + 2 + 3 + 4 +   1 + 2 + 3 + 4 +   1 + 2 + 3 + 4 +

[Soft Chorus]
   C                 G                 Am                F   
E|-0---------------|-----------------|-----------------|-----------------|
B|-1---------------|-0---------------|-1---------------|-----------------|
G|-----------------|-0---------------|-2---------------|-2---------------|
D|-----------------|-----------------|-----------------|-3---------------|
A|-3---------------|-----------------|-0---------------|-----------------|
E|-----------------|-3---------------|-----------------|-1---------------|
   1 + 2 + 3 + 4 +   1 + 2 + 3 + 4 +   1 + 2 + 3 + 4 +   1 + 2 + 3 + 4 +

   C                 G                 Am                F   
E|-0---------------|-----------------|-----------------|-----------------|
B|-1---------------|-0---------------|-1---1---1---1---|-----------------|
G|-----------------|-0---------------|-----------------|-2---2---2---0---|
D|-----------------|-----------------|---2---2---2---2-|-----------------|
A|-3---------------|-----------------|-0---------------|---3---3---3---3-|
E|-----------------|-3---------------|-----------------|-1---------------|
   1 + 2 + 3 + 4 +   1 + 2 + 3 + 4 +   1 + 2 + 3 + 4 +   1 + 2 + 3 + 4 +