3/10

DIFFICULTY

STANDARD TUNING

NO CAPO

Guitar Chord & Songwriting Cheat Sheet

GUITARZERO2HERO FREEBIE:

CHORD & SONGWRITING CHEAT SHEET

MASTER OVER 200+ CHORDS & MORE - YOU'LL ALSO RECEIVE THE LATEST NEWS & UPDATES FROM GUITARZERO2HERO

CHORD SHAPES

Welcome to this Stay Awake Guitar Tutorial by Dean Lewis!
This song is off Dean’s new album “A Place We Knew”, it’s a great track and has a really fun fingerpicked guitar riff throughout the song. You can also use this riff through the choruses, or alternatively if you want to strum the chorus, I’ll also show you how to do that in the video. The song requires no capo!

Enjoy! Like this #stayawake video by #deanlewis and subscribe to the channel for more videos in the future!

-Dave Tran (Your online guitar teacher ūüėĀ)

[Main Riff]
E|---------X---------------X-------|---------x---------------x-------| 
B|---------X---------------X-------|---------x---------------x-------| 
G|-7-----7-X---2---4-----4-X---2---|-4-----7-x---6-----------x-------| 
D|---------X---------------X-------|---------x---------------x-------| 
A|---------X---------------X-------|---------x---------------x-------| 
E|-7-------X---2---3-------X---2---|-3-----7-x---5-------5---x---5---| 
   1 e + a 2 e + a 3 e + a 4 e + a   1 e + a 2 e + a 3 e + a 4 e + a 

[Prechorus 1]
E|---------X---------------X-------|---------x---------------x-------| 
B|---------X---------------X-------|---------x---------------x-------| 
G|-4-----4-X-------4-----4-X-------|-6-----6-x---6---6-----6-x-------| 
D|---------X---------------X-------|---------x---------------x-------| 
A|---------X---------------X-------|---------x---------------x-------| 
E|-3-------X---3---3-------X---3---|-5-------x---5---5-------x---5---| 
   1 e + a 2 e + a 3 e + a 4 e + a   1 e + a 2 e + a 3 e + a 4 e + a 

E|---------X---------------X-------|---------------------------------| 
B|---------X---------------X-------|---------------------------------| 
G|-4-----4-X-------4-----4-X-------|-6-------------------------------| 
D|---------X---------------X-------|---------------------------------| 
A|---------X---------------X-------|---------------------------------| 
E|-3-------X---3---3-------X---3---|-5-------------------------------| 
   1 e + a 2 e + a 3 e + a 4 e + a   1 e + a 2 e + a 3 e + a 4 e + a 

[Prechorus 2]
E|---------X---------------X-------|---------x---------------x-------| 
B|---------X---------------X-------|---------x---------------x-------| 
G|-4-----4-X-------4-----4-X-------|-6-----6-x---6---6-----6-x-------| 
D|---------X---------------X-------|---------x---------------x-------| 
A|---------X---------------X-------|---------x---------------x-------| 
E|-3-------X---3---3-------X---3---|-5-------x---5---5-------x---5---| 
   1 e + a 2 e + a 3 e + a 4 e + a   1 e + a 2 e + a 3 e + a 4 e + a 

E|---------X---------------X-------|---------x-------5-5-5-5-5-5-5-5-|-5-|
B|---------X---------------X-------|---------x-------5-5-5-5-5-5-5-5-|-5-|
G|-4-----4-X-------4-----4-X-------|-6-----6-x---6---6-6-6-6-6-6-6-6-|-6-|
D|---------X---------------X-------|---------x-------7-7-7-7-7-7-7-7-|-7-|
A|---------X---------------X-------|---------x-------7-7-7-7-7-7-7-7-|-7-|
E|-3-------X---3---3-------X---3---|-5-------x---5---5-5-5-5-5-5-5-5-|-5-|
   1 e + a 2 e + a 3 e + a 4 e + a   1 e + a 2 e + a 3 e + a 4 e + a 

[Bridge]
E|---------------------------------|---------------------------------| 
B|---------------------------------|---------------------------------| 
G|-4-----------6-------------------|-7-----------11------------------| 
D|---------------------------------|---------------------------------| 
A|---------------------------------|---------------------------------| 
E|-3-----------5-------------------|-7-----------10------------------| 
   1 e + a 2 e + a 3 e + a 4 e + a   1 e + a 2 e + a 3 e + a 4 e + a 

E|---------------------------------|---------------------------------| 
B|---------------------------------|---------------------------------| 
G|-4-----------6---------------7---|---------------------------------| 
D|---------------------------------|---------------------------------| 
A|---------------------------------|---------------------------------| 
E|-3-----------5---------------7---|---------------------------------| 
   1 e + a 2 e + a 3 e + a 4 e + a   1 e + a 2 e + a 3 e + a 4 e + a