6.5/10

DIFFICULTY

STANDARD TUNING

NO CAPO

Guitar Chord & Songwriting Cheat Sheet

GUITARZERO2HERO FREEBIE:

CHORD & SONGWRITING CHEAT SHEET

MASTER OVER 200+ CHORDS & MORE - YOU'LL ALSO RECEIVE THE LATEST NEWS & UPDATES FROM GUITARZERO2HERO

CHORD SHAPES

Welcome to this Almost Guitar Tutorial by Hozier!
This is the first single off Hozier’s awesome new album Wasteland, Baby! There’s not a whole lot of parts to learn in this song, structure wise it’s fairly basic, however timing wise it’s very tricky! The rhythm’s in this song are very complex with an unusual percussion loop. On top of that the utilises a whole lot of barre chords so it’s easiest to learn this on the electric.Despite being tricky, it sounds amazing and is a whole lot of fun to play! So be sure to give it a shot. When Hozier plays it he adds a bunch of little fills and improvisations which I have left out for simplicity.

Enjoy! Like this #almost #sweemusic video by #hozier and subscribe to the channel for more videos in the future!

-Dave Tran (Your online guitar teacher ūüėĀ)

[INTRO/CHORUS]
   Em    Bm    C       G       Em      Bm    C     G                    
E|---------------------------------|---------------------------------|
B|-8p7-------------------------8p7-|---------------------------------|
G|-------7-----9-------4-----------|---7-----9-----4-----4-------4---|
D|---------------------------------|---------------------------------|
A|-7---------------------------7---|---------------------------------|
E|-------7-----8-------3-----------|---7-----8-----3-----3-------3---|
   1 e + a 2 e + a 3 e + a 4 e + a   1 e + a 2 e + a 3 e + a 4 e + a   

     Em    Bm    C     G             G     Am    Bm      G
E|---------------------------------|---------------------------------|
B|---8-----------------------------|-----------------------3---------|
G|---------7-----9-----4-----------|-4-----5-----7---------4---------|
D|---------------------------------|-----------------------5---------|
A|---7-----------------------------|---------------------------------|
E|---------7-----8-----3-------0---|-3-----5-----7-------3-----------|
   1 e + a 2 e + a 3 e + a 4 e + a   1 e + a 2 e + a 3 e + a 4 e + a   

   Em     Bm    C       G       Em        Bm    C     G                  
E|-7h10p7-7-----8-------3-------7h10p7|---7-----8-----3-----3-------3---|
B|-8------7-----8-------3-------8-----|---7-----8-----3-----3-------3---|
G|------------------------------------|---------------------------------|
D|------------------------------------|---------------------------------|
A|-7----------------------------7-----|---------------------------------|
E|--------7-----8-------3-------------|---7-----8-----3-----3-------3---|
   1 e +  a 2 e + a 3 e + a 4 e + a     1 e + a 2 e + a 3 e + a 4 e + a   

     Em    Bm    C     G             G     Am    Bm      G
E|---7-----7-----8-----3-----------|-3-----5-----7---------3---------|
B|---8-----7-----8-----3-----------|-3-----5-----7---------3---------|
G|---------------------------------|-----------------------4---------|
D|---------------------------------|-----------------------5---------|
A|---7-----------------------------|---------------------------------|
E|---------7-----8-----3-------0---|-3-----5-----7-------3-----------|
   1 e + a 2 e + a 3 e + a 4 e + a   1 e + a 2 e + a 3 e + a 4 e + a


[VERSE]
   G                         C       G                                
E|-3-------------------------------|-3-------------------------------|
B|-3-----------------------x-5-----|-3-------------------------------|
G|-4-----------------------x-5-----|-4-------------------------------|
D|-5-----------------------x-5-----|-5-------------------------------|
A|-5-----------------------x-3-----|-5-------------------------------|
E|-3-------------------------------|-3-------------------------------|
   1 e + a 2 e + a 3 e + a 4 e + a   1 e + a 2 e + a 3 e + a 4 e + a  

   Em          D                     C
E|---------------------------------|---------------------------------|
B|-0-----0-----3-----3-----3-------|-1-----1-----1-------------------|
G|-0-----0-----2-----2-----2-------|-0-----0-----0-------------------|
D|-------------0-----0-----0-------|---------------------------------|
A|---------------------------------|-3-----3-----3-------------------|
E|-0-----0-------------------------|---------------------------------|
   1 e + a 2 e + a 3 e + a 4 e + a   1 e + a 2 e + a 3 e + a 4 e + a


[PRECHORUS]
| Em B | C | G |
| Em Dsus2 | C/G G |


[BRIDGE]
   G     F#m   Em                      C/G         G
E|---------------------------------|---0-------0---------------------|
B|-3-----2-----0-------------------|-x-1-----x-1---3-----------------|
G|-4-----2-----0-------------------|-x-0-----x-0---4-----------------|
D|-5-----4-----2-------------------|-x-2-----x-2---5-----------------|   X2
A|-5-----4-----2-------------------|-x-3-----x-3---5-----------------|
E|-3-----2-----0-------------------|---------------3-----------------|
   1 e + a 2 e + a 3 e + a 4 e + a   1 e + a 2 e + a 3 e + a 4 e + a  

   G     Am    Bm                    Em    Bm  G   C                  
E|---------------------------------|-7-------------------------------|
B|-3-----5-----7-------------------|-8-----7---3---5-----------------|
G|-4-----5-----7-------------------|-9-----7---4---5-----------------|
D|-5-----7-----9-------------------|-9-----9---5---5-----------------|
A|-5-----7-----9-------------------|-7-----9---5---3-----------------|
E|-3-----5-----7-------------------|-------7---3---------------------|
   1 e + a 2 e + a 3 e + a 4 e + a   1 e + a 2 e + a 3 e + a 4 e + a  

   Em    Bm    C       G             Am7   D       G
E|-7-------------------------------|---------------------------------|
B|-8-----7-----8-------3-----------|-5-----7-------3-----------------|
G|-9-----7-----9-------4-----------|-5-----7-------4-----------------|
D|-9-----9-----10------5-----------|-5-----7-------5-----------------|
A|-7-----9-----10------5-----------|-7-----5-------5-----------------|
E|-------7-----8-------3-----------|-5-------------3-----------------|
   1 e + a 2 e + a 3 e + a 4 e + a   1 e + a 2 e + a 3 e + a 4 e + a