3.5/10

DIFFICULTY

STANDARD TUNING

NO CAPO

Guitar Chord & Songwriting Cheat Sheet

GUITARZERO2HERO FREEBIE:

CHORD & SONGWRITING CHEAT SHEET

MASTER OVER 200+ CHORDS & MORE - YOU'LL ALSO RECEIVE THE LATEST NEWS & UPDATES FROM GUITARZERO2HERO

Welcome to this Wish You Were Gay Guitar Tutorial by Billie Eilish!
This has a really great and easy fingerpicking riff which most beginners should be able to pick up! The other great thing is that it just requires a guitar in standard tuning and no capo!

A big thank you to Amanda again for her beautiful vocals in the song playthrough at the end of the video. You can check out her youtube channel here – https://www.youtube.com/user/XxMissAmandaLeexX

Enjoy! Like this #wishyouweregay video by #billieeilish and subscribe to the channel for more videos in the future!

-Dave Tran (Your online guitar teacher ūüėĀ)

[Verse 1]
       Am               D7                 G              Em
"Baby, I don't feel so good", 6 words you never understood
            Am              D7               G      Em
"I'll never let you go", 5 words you never said
         Am                  D7                 G             Em
I laugh along like nothing's wrong, 4 days has never felt so long
           Am           D7               G     Em
If 3's a crowd and 2 is us, 1 slipped away

   Am            D7           G             Em
e|--------x------2------X---|--------x-------------x---|
B|-1------x------1------X---|-0------x------0------x---|
G|-2------x-------------X---|-0------x------0------x---|   
D|--------x------0------X---|--------x-------------x---|   x2
A|-0------x-------------X---|--------x-------------x---|
E|--------x-------------X---|-3------x------0------x---|
   1      2      3      4     1      2      3      4 

   Am            D7           Gmaj7         Em
e|------0-x-----------2-X---|------2-x-----------0-x---|
B|-----1--x----------1--X---|-----0--x----------0--x---|
G|----2---x---------2---X---|----0---x---------0---x---|   
D|--------x------0------X---|--------x-------------x---|   
A|-0------x-------------X---|--------x-------------x---|
E|--------x-------------X---|-3------x------0------x---|
   1      2      3      4     1      2      3      4 

   Am            D7           G             
e|------0-x-----------2-X---|------3-x------3----------|
B|-----1--x----------1--X---|-----0--x------0----------|
G|----2---x---------2---X---|----0---x------0----------|   
D|--------x------0------X---|--------x------0----------|   
A|-0------x-------------X---|--------x------2----------|
E|--------x-------------X---|-3------x------3----------|
   1      2      3      4     1      2      3      4 

[Chorus]
Am           D7              G        Em  D#/F# G
I just wanna make you feel okay
     Am           D7              G      Em D#/F# G
But all you do is look the other way
Am               D7                  G                   Em D#/F# G
I can't tell you how much I wish I didn't wanna stay
     Am           D7                    G     
But I just kinda wish you were gay

[Verse 2]
            Am               D7
Is there a reason we're not through
            G                   Em
Is there a 12th step just for you
            Am             D7
Our conversations are in blue
     G    Em
11 heys
            Am            D7
10 fingers pulling on my hair
             G               Em
9 times you never made it fair
       Am          D7              G    Em
I ate alone at 7, 6 minutes away

   Am            D7           Gmaj7         Em
e|------0-x-----------2-X---|------2-x-----------0-x---|
B|-----1--x----------1--X---|-----0--x----------0--x---|
G|----2---x---------2---X---|----0---x---------0---x---|   
D|--------x------0------X---|--------x-------------x---|   
A|-0------x-------------X---|--------x-------------x---|
E|--------x-------------X---|-3------x------0------x---|
   1      2      3      4     1      2      3      4 

   Am            D7           G             
e|------0-x-----------2-X---|------3-x-----------0-x---|
B|-----1--x----------1--X---|-----0--x----------0--x---|
G|----2---x---------2---X---|----0---x---------0---x---|   
D|--------x------0------X---|--------x-------------x---|   
A|-0------x-------------X---|--------x-------------x---|
E|--------x-------------X---|-3------x------0------x---|
   1      2      3      4     1      2      3      4 

   Am            D7           Gmaj7         Em
e|------0-x-----------2-X---|------2-x-----------0-x---|
B|-----1--x----------1--X---|-----0--x----------0--x---|
G|----2---x---------2---X---|----0---x---------0---x---|   
D|--------x------0------X---|--------x-------------x---|   
A|-0------x-------------X---|--------x-------------x---|
E|--------x-------------X---|-3------x------0------x---|
   1      2      3      4     1      2      3      4 

   Am            D7           G             
e|------0-x-----------2-X---|------3-x------3----------|
B|-----1--x----------1--X---|-----0--x------0----------|
G|----2---x---------2---X---|----0---x------0----------|   
D|--------x------0------X---|--------x------0----------|   
A|-0------x-------------X---|--------x------2----------|
E|--------x-------------X---|-3------x------3----------|
   1      2      3      4     1      2      3      4 

[Chorus]
Am                  D7             G     Em D#/F# G
How'm I s'posed to make you feel okay
      Am            D7               G      Em D#/F# G
When all you do is walk the other way
Am             D7                           G            Em D#/F# G
I can't tell you how much I wish I didn't wanna stay
Am            D7               G         
I just kinda wish you were gay

[Bridge]
            Am        D7
To spare my pride
                       G                       Em D#/F# G
To give your lack of interest an explanation
             Am    D7
I'm not your type
                    G                  Em D#/F# G
Maybe I'm not your preferred gender orientation
       Am     D7                      G          Em D#/F# G
I'm so selfish but you make me feel helpless
            Am             
And I can't stand another day
         D7               
I can't stand another day

[Chorus]
Am            D7               G      
I just wanna make you feel okay
     Am            D7               G      
But all you do is look the other way
Am            D7                             G         Em D#/F# G
I can't tell you how much I wish I didn't wanna stay
Am            D7              G       Em D#/F# G
I just kinda wish you were gay
Am            D7             G
I just kinda wish you were gay