LOVE OF MY LIFE – QUEEN ACOUSTIC GUITAR LESSON

6/10

DIFFICULTY

STANDARD TUNING

NO CAPO

Guitar Chord & Songwriting Cheat Sheet

GUITARZERO2HERO FREEBIE:

CHORD & SONGWRITING CHEAT SHEET

MASTER OVER 200+ CHORDS & MORE - YOU'LL ALSO RECEIVE THE LATEST NEWS & UPDATES FROM GUITARZERO2HERO

Welcome to this Love Of My Life Guitar Tutorial by Queen!
I’ve had so many requests for this song, so I’ve finally gotten around to it. It’s probably the most in depth lesson i’ve created to date but definitely one of my favourite to play. In this video I teach you an acoustic version of Love Of My Life based off Queen’s 1981 live performance in Montreal – you can check out a clip for that futher below in the description. Note that this isn’t a note for note transcription but a helpful guide to show you the main structure and parts of the song. Brian May always plays this song differently every single time, but the core chords and structure generally remains the same. He also uses a 12 string guitar but since I know most people won’t have one this arrangement is for a 6 string guitar but is arranged so that some of those higher notes are still heard.

Thanks to my mate @david_scammell for providing his lovely vocals – check him out on instagram.

Enjoy! Like this #loveofmylife video by #queen and subscribe to the channel for more videos in the future!

-Dave Tran (Your online guitar teacher ūüėĀ)

Legend
L - tied note
x - dead note
h - hammer on/pull off
b - bend
s - slide
~ - vibrato
g - ghost note
> - accentuated note
t - trill
M - palm mute
. - staccato
P - popping (bass)
S - slapping (bass)
+ - tapping
W - wide vibrato
< - fade in
w - whammy bar
= - tremolo picking
v - brush up
^ - brush down
V - pick stroke up
n - pick stroke down


[INTRO]                                             
E|-----------2----------------|-----------2----------------|
B|--3--2--3-------------------|--3--2--3-------------------|
G|--2-------------------------|--4-------------------------|
D|--0-------------------------|----------------------------|
A|--------------------(4)-----|--2----------------(0)------|
E|----------------------------|----------------------------|

                                                          
----------------------------|----------------------------|
--------------0-----3-------|--2-----3-----5-----2-------|
-----------0-----------0----|----------------------------|
--------2--------2----------|--2-----4-----5-----2-------|
-----2----------------------|--0--0-----0-----0----------|
--0-------------------------|----------------------------|

                                                          
-----------2----------------|-----------2----------------|
--3--2--3-------------------|--3--2--3-------------------|
--2-------------------------|--4-------------------------|
--0-------------------------|----------------------------|
-------------------(4)------|--2----------------(0)------|
----------------------------|----------------------------|

                               ^     ^     ^     ^                
--7-----------5-----0-------|--0-----0-----0-----0L------|--0----|
--------5--------3-----3----|--0-----0-----0-----0L------|--0----|
-----7-----7----------------|--1-----2-----4-----7L------|--7----|
--5-----------4-------------|--2-----4-----6-----9L------|--9----|
----------------------------|--2-----x-----x-----xL------|--x----|
----------------------------|--0--0--0--0--0--0--0L------|--0----|

[VERSE 1]                                                    
-----------0----------------|--------------------2-------|
-----------------2----------|--------------2--------2----|
--2--1--2-----2-----2-------|--------2--------2----------|
--2--------------------2----|-----------4----------------|
--0-------------------------|-----4----------------------|
----------------------------|--2-------------------------|

                               ^     ^     ^     ^        
-----------2----------------|--0-----0-----0-----0-------|
--3--2--3--------3----------|--0-----0-----0-----0-------|
--4-----------4-----4-------|--1-----2-----4-----1-------|
-----------------------4----|--2-----4-----6-----2-------|
--2-------------------------|--2-----x-----x-----2-------|
----------------------------|--0--0--0--0--0--0--0-------|

                                                          
-----------2-----0-----2----|--2-----------2-------------|
--2--0-----2----------------|--------3-------------------|
--2-----2--2----------------|-----2-----2----------------|
-----------5----------------|--0-------------------------|
--0-------------------------|----------------------------|
----------------------------|----------------------------|

  ^           ^                               ^  ^          ^  ^  ^     
--2-----------2-------------|-----------------2--2-------|-----2-------|
--3-----------2-------------|--3--2--0--0-----3--3-------|--0--3--3----|
--4-----------2-------------|--0--------0-----2--2-------|--0--2--4----|
--4-----------4-------------|-----------------0--0-------|--0--0--4----|
--2-----------4-------------|----------------------------|--2-----2----|
--------------2-------------|--3--------3----------------|--3----------|

  ^  ^                                                               
--0-------|--------------7-----5-------|--3s-5--2-------------------|
--0--2----|--------3-------------------|----------------------------|
--0--2----|-----2-----2--7-----6-------|--4s-6--2-------------------|
--2--2----|--0--------------0-----0----|----------------------------|
--2--0----|----------------------------|----------------------------|
--0-------|----------------------------|----------------------------|


[BREAK]                        ^     ^     ^                      
--7-----------5-----0-------|--0-----0-----0-----0L------|--0----|
--------5--------3-----3----|--0-----0-----0-----0L------|--0----|
-----7-----7----------------|--1-----2-----4-----7L------|--7----|
--5-----------4-------------|--2-----4-----6-----9L------|--9----|
----------------------------|--2-----x-----x-----xL------|--x----|
----------------------------|--0--0--0--0--0--0--0L------|--0----|

[VERSE 2]                                                  
-----------0----------------|--------------------2-------|
-----------------2----------|--------------2--------2----|
--2--1--2-----2-----2-------|--------2--------2----------|
--2--------------------2----|-----------4----------------|
--0-------------------------|-----4----------------------|
----------------------------|--2-------------------------|

                               ^     ^     ^     ^        
-----------2----------------|--0-----0-----0-----0-------|
--3--2--3--------3----------|--0-----0-----0-----0-------|
--4-----------4-----4-------|--1-----2-----4-----1-------|
-----------------------4----|--2-----4-----6-----2-------|
--2-------------------------|--2-----x-----x-----2-------|
----------------------------|--0--0--0--0--0--0--0-------|

                                                          
-----------2-----0-----2----|--2-----------2-------------|
--2--0-----2----------------|--------3-------------------|
--2-----2--2----------------|-----2-----2----------------|
-----------5----------------|--0-------------------------|
--0-------------------------|----------------------------|
----------------------------|----------------------------|


[BRIDGE]  
  ^           ^                               ^  ^          ^  ^  ^     
--2-----------2-------------|-----------------2--2-------|-----2-------|
--3-----------2-------------|--3--2--0--0-----3--3-------|--0--3--3----|
--4-----------2-------------|--0--------0-----2--2-------|--0--2--4----|
--4-----------4-------------|-----------0-----0--0-------|--0--0--4----|
--2-----------4-------------|----------------------------|--2-----2----|
--------------2-------------|--3--------3----------------|--3----------|

  ^  ^                                    ^       ^     
--0-------|--------------0-----2-------|--2----|-------|
--0--2----|--------3-------------------|--3----|--2----|
--0--2----|-----2-----2-----2----------|--4----|--2----|
--2--2----|--0-------------------------|--4----|--4----|
--2--0----|----------------------------|--2----|--4----|
--0-------|----------------------------|-------|--2----|

                                                 ^        
--------------------3-------|--2-----3s-5--5-----2-------|
--------------3--------3----|--3-----5s-7--7-----2-------|
--------0--------0----------|--------------------3-------|
-----0-----0----------------|--0--0--------------4-------|
----------------------------|--------------------4-------|
--3-------------------------|--------------------2-------|

                                                          
--------------------2-------|--------------2-------------|
--------------3--------3----|----------------------------|
--------4--------4----------|-----------2----------------|
-----4-----4----------------|--------4-------------------|
--2-------------------------|-----4----------------------|
----------------------------|--2-------------------------|

                                                          
--2--------2-----2----------|--------------0-------------|
--2--------1-----0----------|--------------------3-------|
--2--------2-----2----------|-----------0-----0-----0----|
--1--------1-----1----------|--------2-------------------|
----------------------------|-----2----------------------|
----------------------------|--0-------------------------|

                                      [INTRUMENTAL]                                                           
----------------------------|-------|-----5--------------5-------|
--2-----3-----5-----14L-----|--14---|-----------7-----7-----7----|
--------------------12L-----|--12---|--------7-----6-------------|
--2-----4-----5-----14L-----|--14---|--0-------------------------|
--0--0-----0-----0--0-------|-------|----------------------------|
----------------------------|-------|----------------------------|

                                                          
-----5--------------5-------|-----5--------------5-------|
-----------7-----7-----7----|-----------7-----7-----7----|
--------7-----6-------------|--------7-----6-------------|
--0-------------------------|--0-------------------------|
----------------------------|----------------------------|
----------------------------|----------------------------|

                                                                  
-----5--------------5-------|-------|----------------------------|
-----------7-----7----------|-------|--7-----7-----5-----7-------|
--------7-----6--------6h---|--7----|----------------------------|
--0-------------------------|-------|-----7-----------7-----7----|
----------------------------|-------|--5-----------4-----5-------|
----------------------------|-------|----------------------------|

                                                                  
----------------------------|-----------0--------5-------|--5----|
--5-----7-----8-----7-------|--5-----3-----2--------2----|-------|
----------------------------|----------------------------|-------|
-----7-----7-----9-----7----|-----7-----------2----------|-------|
--4-----5-----7-----5-------|--4-----2-----0-------------|-------|
----------------------------|----------------------------|-------|

                                                                  
--3--------2--3--------3----|-----3----------------------|-------|
--1-----1-----0-----0-------|--1-----3--1--0-----12L-----|--12---|
--0--0--------0--0----------|--------------0-----12L-----|--12---|
----------------------------|--------------------12L-----|--12---|
--0-------------------------|----------------------------|-------|
--------------3-------------|--------------3-------------|-------|

                                                                  
--10----9-----7s-9--5L------|--5----|--7-----------5-----0-------|
----------------------------|-------|--------5--------3-----3----|
--11----9-----7s-9--6L------|--6----|-----7-----7----------------|
-----0-----0--------0-------|-------|--5-----------4-------------|
----------------------------|-------|----------------------------|
----------------------------|-------|----------------------------|

                                                          
--7-----------5-----0-------|--7-----------5-----0-------|
--------5--------3-----3----|--------5--------3-----3----|
-----7-----7----------------|-----7-----7----------------|
--5-----------4-------------|--5-----------4-------------|
----------------------------|----------------------------|
----------------------------|----------------------------|

  ^     ^     ^     ^          ^     ^     ^                      
--0-----0-----0-----0-------|--0-----0-----0-----0L------|--0----|
--0-----0-----0-----0-------|--2-----3-----5-----8L------|--8----|
--1-----2-----4-----7-------|--0-----0-----0-----0L------|--0----|
--2-----4-----6-----9-------|--2-----4-----5-----9L------|--9----|
--2-----x-----x-----x-------|--0--0--0--0--0--0--0L------|--0----|
--0--0--0--0--0--0--0--0----|----------------------------|-------|

[OUTRO]                                       ^  ^          ^  ^  ^     
--2-----------2-------------|-----------------2--2-------|-----2-------|
--3-----------2-------------|--3--2--0--0-----3--3-------|--0--3--3----|
--4-----------2-------------|--0--------0-----2--2-------|--0--2--4----|
--4-----------4-------------|-----------------0--0-------|--0--0--4----|
--2-----------4-------------|----------------------------|--2-----2----|
--------------2-------------|--3--------3----------------|--3----------|

  ^  ^
--0-------|--------------10----14------|-----------2L-2-------------|
--0--2----|--------3-----10----15------|--3-------------------------|
--0--2----|-----2-----2----------------|--4-----4-------------------|
--2--2----|--0--------------0----------|-----4----------------------|
--2--0----|----------------------------|--2-------------------------|
--0-------|----------------------------|----------------------------|


-----------2L-2-------------|--------------6-----5-------|
--2-------------------------|--3-----------3-----3-------|
--2-----2-------------------|--0-----0-----3-----3-------|
-----4----------------------|-----2----------------------|
----------------------------|----------------------------|
--2-------------------------|--0--------2--3--3----------|


--------------10----14L-----|--14---||
--3-----7-----10----15L-----|--15---||
--2-----7-----------14L-----|--14---||
--0--0-----0-----0--0L------|--0----||
----------------------------|-------||
----------------------------|-------||
2019-02-24T08:53:37+00:00