4.5/10

DIFFICULTY

STANDARD TUNING

NO CAPO

Guitar Chord & Songwriting Cheat Sheet

GUITARZERO2HERO FREEBIE:

CHORD & SONGWRITING CHEAT SHEET

MASTER OVER 200+ CHORDS & MORE - YOU'LL ALSO RECEIVE THE LATEST NEWS & UPDATES FROM GUITARZERO2HERO

CHORD SHAPES

Welcome to this Medicine Guitar Tutorial by Bring Me The Horizon!
This is probably my favourite song from their awesome new album Amo. It’s a simple song to play and you won’t need a capo at all. There’s few cool little guitar licks as well which are easy so its great for beginners.

Enjoy! Like this #medicine video by #bringmethehorizon and subscribe to the channel for more videos in the future!

-Dave Tran (Your online guitar teacher ūüėĀ)

[Verse 1]
Bb                                    Dm
Some people are a lot like clouds, you know
(Clouds, you know, clouds, you know)
C                                        Gm
'Cause life's so much brighter when they go
Bb                                  Dm
 You rained on my heart for far too long (Far too long)
C                                Gm
Couldn't see the thunder for the storm

[Riff 1]
e|---------------------------------|
B|-10----13--------10----10--------|
G|-------------12------------------|
D|-----------------------------12--|
A|---------------------------------|
E|---------------------------------|
   1 e + a 2 e + a 3 e + a 4 e + a 

[Riff 2]
e|-------------------------------------------------|
B|-------------------------------------------------|
G|-14-14-14-14-------12-12-12-12-------------------|
D|-------------------------------------------------|
A|-12-12-12-12-------10-10-10-10-------------------|
E|-------------------------------------------------|
   1  e  +  a  2  e  +  a  3  e  +  a  4  e  +  a    

e|-------------------------------------------------|
B|-------------------------------------------------|
G|-12-12-12-12-------12-12-12-12-------7--7--7--5--|
D|-------------------------------------------------|
A|-10-10-10-10-------10-10-10-10-------5--5--5--3--|
E|-------------------------------------------------|
   1  e  +  a  2  e  +  a  3  e  +  a  4  e  +  a   

           Bb
Because I cut my teeth and bit my tongue
         Dm
Till my mouth was dripping blood
            C
But I never dished the dirt, just held my breath
         Gm
While you dragged me through the mud
             Bb
I don't know why I tried to save you 'cause
       Dm
I can't save you from yourself
     C                            Gm
When all you give a shit about is everybody else


[Pre-Chorus]
Bb                      Dm                           C
And you just can't quit, why don't you deal with it?
                     N.C.
I think it's time to stop

[Prechorus Riff]
e|----------------|
B|----------------|
G|-12----------10-|
D|-------12-------|
A|----------------|
E|----------------|
   1 e + a 2 e + a 



[Chorus]
            Bb                F/A       Dm   C
You need a taste of your own medicine
           Bb                F/A       Dm
'Cause I'm sick to death of swallowing
C                 Bb                   F/A
Watch me take the wheel like you, not feel like you
Dm                 C          
Act like nothing's real like you
Bb      F/A            Dm       C         Am
So I'm sorry for this, it might sting a bit

N.C.

[Verse 2]
Bb                                 Dm
Some people are a lot like clouds, you know

(Clouds, you know, clouds, you know)
C                                       Gm
'Cause life's so much brighter when they go
             Bb                         Dm
And I spent too long in a place I don't belong
C                                   Gm
I couldn't see the thunder for the storm


[Pre-Chorus]
Bb                 Dm                      C
But you won't admit, why don't you get a grip?
                            Gm                              Bb
'Cause you can't keep going on and on and on and on like this
                      Dm                          C
And you just can't quit, why don't you deal with it?
                      N.C.
I think it's time to stop


[Chorus]
            Bb                F/A       Dm   C
You need a taste of your own medicine
           Bb                F/A       Dm
'Cause I'm sick to death of swallowing
C                 Bb                   F/A
Watch me take the wheel like you, not feel like you
Dm                 C          
Act like nothing's real like you
Bb      F/A            Dm       C         Am
So I'm sorry for this, it might sting a bit


[Bridge]
          Bb              F/A
'Cause I cut my teeth and bit my tongue
        Dm                 C
Till my mouth was dripping blood
             Bb              F/A
But I never dished the dirt, just held my breath
          Dm                     C
While you dragged me through the mud
          Bb              F/A
Yeah, I cut my teeth and bit my tongue
        Dm                 C
Till my mouth was dripping blood
             Bb                   F/A
But I never dished the dirt, just held my breath
           Dm                     C    
While you dragged me through the mud

[Break]
Bb      Dm      C     Gm

e|---------------------------------|---------------------------------|
B|-------10--------------10--------|-------10------------------------|
G|-------------10--12----------10--|-12----------10--12--------------|
D|-12------------------------------|---------------------------------|
A|---------------------------------|---------------------------------|
E|---------------------------------|---------------------------------|
 1 e + a 2 e + a 3 e + a 4 e + a   1 e + a 2 e + a 3 e + a 4 e + a
  
e|---------------------------------|----------------------------------------|
B|-------10--------------10--------|-------10----------13-13-13-13-13p10----|
G|-12----------10--12----------10--|-12----------10h12-------------------12-|
D|---------------------------------|----------------------------------------| 
A|---------------------------------|----------------------------------------|
E|---------------------------------|----------------------------------------|
 1 e + a 2 e + a 3 e + a 4 e + a   1 e + a 2 e +  a  3  e  +  a  4  e  +  a

e|---------------------------------|---------------------------------|
B|-------10--------------10--------|-------10------------------------|
G|-12----------10--12----------10--|-12----------10--12--------------|
D|---------------------------------|---------------------------------|
A|---------------------------------|---------------------------------|
E|---------------------------------|---------------------------------|
 1 e + a 2 e + a 3 e + a 4 e + a   1 e + a 2 e + a 3 e + a 4 e + a

e|---------------------------------|---------------------------------|
B|-------10--------------10--------|---------------------------------|
G|-12----------10--12----------10--|---------------------------------|
D|---------------------------------|---------------------------------|
A|---------------------------------|---------------------------------|
E|---------------------------------|---------------------------------|
 1 e + a 2 e + a 3 e + a 4 e + a   1 e + a 2 e + a 3 e + a 4 e + a

[Pre-Chorus]
Bb                    Dm                          C
And you just can't quit, why don't you deal with it?
                      N.C.
I think it's time to stop


[Chorus]
            Bb                F/A       Dm   C
You need a taste of your own medicine
           Bb                F/A       Dm
'Cause I'm sick to death of swallowing
C                 Bb                  F/A
Watch me take the wheel like you, not feel like you
Dm                 C           
Act like nothing's real like you
Bb     F/A            Dm             C      
So I'm sorry for this, it might sting a bit
Bb                F/A        Dm               C
Taste of your own medicine (Taste of your own medicine)
           Bb               F/A          Dm            C
Yeah, I'm sick to death of swallowing (Sick to death, oh)
                Bb                     F/A
Watch me take the wheel like you, not feel like you
Dm                 C            
Act like nothing's real like you
Bb               F/A            Dm     C     
So I'm sorry for this, it might sting a bit


[Outro]
Bb                                    Dm      Am
Some people are a lot like clouds, you know

(Clouds, you know, clouds, you know)
C                                        Gm
'Cause life's so much brighter when they go