LITTLE THINGS – ONE DIRECTION GUITAR LESSON

3/10

DIFFICULTY

STANDARD TUNING

NO CAPO

Guitar Chord & Songwriting Cheat Sheet

GUITARZERO2HERO FREEBIE:

CHORD & SONGWRITING CHEAT SHEET

MASTER OVER 200+ CHORDS & MORE - YOU'LL ALSO RECEIVE THE LATEST NEWS & UPDATES FROM GUITARZERO2HERO

GUITAR 1 CHORD SHAPES

GUITAR 2 CHORD SHAPES

Welcome to this Little Things Guitar Tutorial by One Direction!
I’ve had a lot of requests for this and it’s a very lovely fingerpicked love song. In the recording you’ll actually be able to hear 2 guitars played at the same time to create a nice layer of acoustic picking. In this video I’ll teach you how to play both guitar parts. The great thing is that each guitar part can be played individually and still sound great. Little fun fact about this song is that Ed Sheeran actually wrote it! No surprise really! Anything he writes is a hit! The 2 versions I’ll teach in this video are:

1. Guitar Part 1 – No Capo
2. Guitar Part 2 – Capo on 5th Fret

Enjoy! Like this #littlethings video by #onedirection and subscribe to the channel for more videos in the future!

----------------------------------------
           GUITAR 1 - NO CAPO
----------------------------------------
[Verse]
   G                                   Cadd9    
e|-----------------|-----------------|-----------------|-----------------|
B|-----3-----3-----|-----3-----3-----|-----3-----3-----|-----3-----3-----|
G|---------------0-|-----------------|---------------0-|---------------0-|
D|---0-----0---0---|---0-----0-------|---2-----2---2---|---2-----2---2---|
A|-----------------|-------------0-2-|-3-----3---------|-3-----3---------|
E|-3-----3---------|-3-----3---------|-----------------|-----------------|
   1 + 2 + 3 + 4 +   1 + 2 + 3 + 4 +   1 + 2 + 3 + 4 +   1 + 2 + 3 + 4 +
   Em7               D/F#              C       Dadd11    G
e|-----------------|-----------------|-----------------|-----------------|
B|-----3-----3-----|-----3-----3-----|-----1-------3---|-----3-----3-----|
G|---------------0-|---2-----2-----0-|-------0---------|---------------0-|
D|---2-----2---2---|-4-----4-----4---|---2-------4-----|---0-----0---0---|
A|-----------------|-----------------|-3-------5-------|-----------------|
E|-0-----0---------|-----------------|-----------------|-3-----3---------|
   1 + 2 + 3 + 4 +   1 + 2 + 3 + 4 +   1 + 2 + 3 + 4 +   1 + 2 + 3 + 4 

[Chorus 1]
   Am7               C                 Em                D/F#    
e|-----------------|-----------------|-----------------|-----------------|
B|-----1-----1-----|-----1-----1-----|-----0-----0-----|-----3-----3-----|
G|---------------0-|---------------0-|---------------0-|---2-----2-----0-|
D|---2-----2---2---|---2-----2---2---|---2-----2---2---|-4-----4-----4---|  X2
A|-0-----0---------|-3-----3---------|-----------------|-----------------|
E|-----------------|-----------------|-0-----0---------|-----------------|
   1 + 2 + 3 + 4 +   1 + 2 + 3 + 4 +   1 + 2 + 3 + 4 +   1 + 2 + 3 + 4 +
   C               
e|-----------------|-0---------------|
B|-----1-----1-----|-1---------------|
G|---------------0-|-0---------------|
D|---2-----2---2---|-2---------------|
A|-3-----3---------|-3---------------|
E|-----------------|-----------------|
   1 + 2 + 3 + 4 +   1 + 2 + 3 + 4 +   

[Break]
   G                                       
e|-----------------|-----------------|
B|-----3-----3-----|-3---------------|
G|-----------------|-----------------|
D|---0-----0-----0-|-----------------|
A|-----------------|-----------------|
E|-3-----3-----3---|-----------------|
   1 + 2 + 3 + 4 +   1 + 2 + 3 + 4 +   

[Chorus 2 & 4]
   Am7               C                 Em                D/F#    
e|-----------------|-----------------|-----------------|-----------------|
B|-----1-----1-----|-----1-----1-----|-----0-----0-----|-----3-----3-----|
G|---------------0-|---------------0-|---------------0-|---2-----2-----0-|
D|---2-----2---2---|---2-----2---2---|---2-----2---2---|-4-----4-----4---|  X2
A|-0-----0---------|-3-----3---------|-----------------|-----------------|
E|-----------------|-----------------|-0-----0---------|-----------------|
   1 + 2 + 3 + 4 +   1 + 2 + 3 + 4 +   1 + 2 + 3 + 4 +   1 + 2 + 3 + 4 +
   C               
e|-----------------|-----------------|
B|-----1-----1-----|-----1-----1-----|
G|---------------0-|---------------0-|
D|---2-----2---2---|---2-----2---2---|
A|-3-----3---------|-3-----3---------|
E|-----------------|-----------------|
   1 + 2 + 3 + 4 +   1 + 2 + 3 + 4 +   

[Chorus 3]
Am7 C Em D
Am7 C Em D
C C

[Bridge]
   Am7               C                 G                 D/F#                                       
e|-----------------|-----------------|-----------------|-----------------|
B|-----1-----1-----|-----1-----1-----|-----3-----3-----|-----3-----3-----|
G|---------------0-|---------------0-|---------------0-|---2-----2-----0-|
D|---2-----2---2---|---2-----2---2---|---0-----0---0---|-4-----4-----4---| 
A|-0-----0---------|-3-----3---------|-----------------|-----------------|
E|-----------------|-----------------|-3-----3---------|-----------------|
   1 + 2 + 3 + 4 +   1 + 2 + 3 + 4 +   1 + 2 + 3 + 4 +   1 + 2 + 3 + 4 +
  
----------------------------------------
           GUITAR 2 - CAPO ON 1ST
----------------------------------------
[Verse]
   D     Dsus2       D     Dsus2       Gmaj7 G6          Gmaj7 G6  
e|-----2-----0-----|-----2-----0-----|-----2-----0-----|-----2-----0-----|
B|---------------3-|---------------3-|---------------3-|---------------3-|
G|---2-----2-------|---2-----2-------|---0-----0-------|---0-----0-------|
D|-0-----0-----0---|-0-----0-----0---|-----------------|-----------------|
A|-----------------|-----------------|-----------------|-----------------|
E|-----------------|-----------------|-3-----3-----3---|-3-----3-----3---|
   1 + 2 + 3 + 4 +   1 + 2 + 3 + 4 +   1 + 2 + 3 + 4 +   1 + 2 + 3 + 4 +
   Bm7               Asus4             G6      A         D     Dsus2
e|-----0-----0-----|-----0-----0-----|-----0-----------|-----2-----0-----|
B|---------------3-|---------------3-|-------3-----2-3-|---------------3-|
G|---2-----2-------|---2-----2-------|---0-------2-----|---2-----2-------|
D|-----------------|-----------------|-----------------|-0-----0-----0---|
A|-2-----2-----2---|-0-----0-----0---|---------0-------|-----------------|
E|-----------------|-----------------|-3---------------|-----------------|
   1 + 2 + 3 + 4 +   1 + 2 + 3 + 4 +   1 + 2 + 3 + 4 +   1 + 2 + 3 + 4 +

[Chorus 1]
   Em7               Gmaj7 G6          Bm7               A    
e|-----0-----0-----|-----2-----0-----|-----------------|-----------------|
B|---------------3-|---------------3-|-----3-----3---3-|-----2-3-2-------|
G|---0-----0-------|---0-----0-------|---2-----2-------|---2-------2-----|
D|-----------------|-----------------|-----------------|-------------2-0-| 
A|-----------------|-----------------|-2-----2-----2---|-0---------------|
E|-0-----0-----0---|-3-----3-----3---|-----------------|-----------------|
   1 + 2 + 3 + 4 +   1 + 2 + 3 + 4 +   1 + 2 + 3 + 4 +   1 + 2 + 3 + 4 +
   Em7               Gmaj7 G6          Bm7               A 
e|-----------------|-----2-----0-----|-----------------|-----------------|
B|-----3-----3---3-|---------------3-|-----3-----3---3-|-----2-3-2-------|
G|---0-----0-------|---0-----0-------|---2-----2-------|---2-------2-----|
D|-----------------|-----------------|-----------------|-------------2-0-| 
A|-----------------|-----------------|-2-----2-----2---|-0---------------|
E|-0-----0-----0---|-3-----3-----3---|-----------------|-----------------|
   1 + 2 + 3 + 4 +   1 + 2 + 3 + 4 +   1 + 2 + 3 + 4 +   1 + 2 + 3 + 4 +
   G               
e|-----------------|-3---------------|
B|-----3-----3---3-|-3---------------|
G|---0-----0-------|-0---------------|
D|-----------------|-0---------------|
A|-----------------|-2---------------|
E|-3-----3-----3---|-3---------------|
   1 + 2 + 3 + 4 +   1 + 2 + 3 + 4 +     

[Break]
   D/A                                       
e|-----------------|-----------------|
B|-----------------|-----------------|
G|-----2-----2-----|-2---------------|
D|---0-----0-----0-|-----------------|
A|-0-----0-----0---|-----------------|
E|-----------------|-----------------|
   1 + 2 + 3 + 4 +   1 + 2 + 3 + 4 +     

[Chorus 2 & 4]
   Em7               Gmaj7 G6          Bm7               A    
e|-----0-----0-----|-----2-----0-----|-----------------|-----------------|
B|---------------3-|---------------3-|-----3-----3---3-|-----2-3-2-------|
G|---0-----0-------|---0-----0-------|---2-----2-------|---2-------2-----|
D|-----------------|-----------------|-----------------|-------------2-0-| 
A|-----------------|-----------------|-2-----2-----2---|-0---------------|
E|-0-----0-----0---|-3-----3-----3---|-----------------|-----------------|
   1 + 2 + 3 + 4 +   1 + 2 + 3 + 4 +   1 + 2 + 3 + 4 +   1 + 2 + 3 + 4 +
   Em7               Gmaj7 G6          Bm7               A 
e|-----------------|-----2-----0-----|-----------------|-----------------|
B|-----3-----3---3-|---------------3-|-----3-----3---3-|-----2-3-2-------|
G|---0-----0-------|---0-----0-------|---2-----2-------|---2-------2-----|
D|-----------------|-----------------|-----------------|-------------2-0-| 
A|-----------------|-----------------|-2-----2-----2---|-0---------------|
E|-0-----0-----0---|-3-----3-----3---|-----------------|-----------------|
   1 + 2 + 3 + 4 +   1 + 2 + 3 + 4 +   1 + 2 + 3 + 4 +   1 + 2 + 3 + 4 +
   G               
e|-----------------|-----------------|
B|-----3-----3---3-|-----3-----3---3-|
G|---0-----0-------|---0-----0-------|
D|-----------------|-----------------|
A|-----------------|-----------------|
E|-3-----3-----3---|-3-----3-----3---|
   1 + 2 + 3 + 4 +   1 + 2 + 3 + 4 +     

[Chorus 3]
Em7 G Bm7 A
Em7 G Bm7 A
G G

[Bridge]
   Em7               G                 D                 A                                       
e|-----------------|-----------------|-----------------|-----------------|
B|-----3-----3---3-|-----3-----3---3-|-----3-----3---3-|-----2-3-2-------|
G|---0-----0-------|---0-----0-------|---2-----2-------|---2-------2-----|
D|-----------------|-----------------|-0-----0-----0---|-------------2-0-|
A|-----------------|-----------------|-----------------|-0---------------|
E|-0-----0-----0---|-3-----3-----3---|-----------------|-----------------|
   1 + 2 + 3 + 4 +   1 + 2 + 3 + 4 +   1 + 2 + 3 + 4 +   1 + 2 + 3 + 4 +
  
2019-01-05T23:13:15+00:00