LIE TO ME – 5SOS GUITAR LESSON

4/10

DIFFICULTY

STANDARD TUNING

NO CAPO

Guitar Chord & Songwriting Cheat Sheet

GUITARZERO2HERO FREEBIE:

CHORD & SONGWRITING CHEAT SHEET

MASTER OVER 200+ CHORDS & MORE - YOU'LL ALSO RECEIVE THE LATEST NEWS & UPDATES FROM GUITARZERO2HERO

CHORD SHAPES

Welcome to this Lie To Me Guitar Tutorial by 5SOS & Julia Michaels!

This is a remake of the track Lie To Me off 5SOS’s latest album, Youngblood featuring vocals from the very talented Julia Michaels! In this lesson I teach you 2 ways of playing the song.

  1. Studio version – A lot of flat picking involved
  2. Easy Strum version – Great for beginners.

The studio version is a great guitar exercise in itself so I would recommend giving it a shot!

Enjoy! Like this #lietome video by #5sos and subscribe to the channel for more videos in the future!

[Verse 1]
C                               F
I saw you looking brand new overnight
    C                                             F
And I caught you looking too, but you didn't look twice
         C         F
You look happy, oh
         C         F
You look happy, oh
C
Flashing back to New York City
F
Changing flights so you stay with me
C                                 G
Remember thinking that I got this right


[Chorus]
      Dm            G
Now I wish we never met
             C            Am
Cause you're too hard to forget
        Dm               G
Now I'm cleaning up your mess
            C               Am
I know he's taking off your dress
Dm              G               C       C/B    Am     
I know that you don't, but if I ask you if you love me
  Am/G     F         G
I hope you lie, lie, lie
       C
Lie to me


[Verse 2]
     C                                   F
It's 3 a.m. and the moonlight's testing me
         C                                           F
If I can make it 'til dawn then it won't be hard to see
        C        F
I ain't happy, oh
            C          F
I ain't too happy, woah
C
Flashing back to New York City
F
Changing flights so you stay with me
C                                 G
Problem was, I thought I had this right


[Chorus]
      Dm            G
Now I wish we never met
           C              Am
Cause your too hard to forget
          Dm               G
While I'm cleaning up your mess
            C               Am
I know he's taking off your dress
Dm              G               C       C/B    Am
I know that you don't, but if I ask you if you love me
  Am7/G    F         G
I hope you lie, lie, lie
       C  G/B  Am
Lie to me

Am7/G    Dm       G        C        Am
Singing, la la la la la la la la la la
      Dm       G        C        Am
La la la la la la la la la la la la
    Dm              G               C       C/B    Am
And I know that you don't, but if I ask you if you love me
  Am7/G    F              G
I hope you lie, lie, lie, lie
Lie to me
 
[Verse]
   C                                 F
e|---------------------------------|---------------------------------|
B|-----3-----5---------3-----5-----|---------------------------------|
G|---------------------------------|-----0-----2---------0-----2-----|
D|---5-----5-----5---5-----5-----5-|---------------------------------|
A|-3-----3---------3-----3---------|---3-----3-----3---3-----3-----3-|
E|---------------------------------|-1-----1---------1-----1---------|
   1 e + a 2 e + a 3 e + a 4 e + a   1 e + a 2 e + a 3 e + a 4 e + a

[Prechorus]
   C                                 G
e|---------------------------------|---------------------------------|
B|-----3-----5---------3-----5-----|---------------------------------|
G|---------------------------------|-----2-----4---------2-----4-----|
D|---5-----5-----5---5-----5-----5-|---0-----0-----0---0-----0-----0-|
A|-3-----3---------3-----3---------|---------------------------------|
E|---------------------------------|-3-----3---------3-----3---------|
   1 e + a 2 e + a 3 e + a 4 e + a   1 e + a 2 e + a 3 e + a 4 e + a

[Chorus 1]
   Dm              G                 C               Am
e|---------------------------------|---------------------------------|
B|---------6-6---------------------|---------5-5-------------1-1-----|
G|-------------7-7---------4-4-----|-------------5-5-------------2-2-|
D|-----7-7---------------------5-5-|-----5-5-------------2-2---------|  x2
A|-5-5-----------------5-5---------|-3-3-------------0-0-------------|
E|-----------------3-3-------------|---------------------------------|
   1 e + a 2 e + a 3 e + a 4 e + a   1 e + a 2 e + a 3 e + a 4 e + a
   Dm              G                 C       C/B     Am      Am7/G
e|---------------------------------|---------------------------------|
B|---------6-6---------------------|-----5-5-----5-5-----1-1-----1-1-|
G|-------------7-7---------4-4-----|---------------------------------|
D|-----7-7---------------------5-5-|---------------------------------|  
A|-5-5-----------------5-5---------|-3-3-----2-2-----0-0-------------|
E|-----------------3-3-------------|-------------------------3-3-----|
   1 e + a 2 e + a 3 e + a 4 e + a   1 e + a 2 e + a 3 e + a 4 e + a
   F               G                 C
e|---------------------------------|---------------------------------|
B|---------------------------------|---------5-5-------------5-------|
G|---------2-2-------------4-------|-------------5-5-----------------|
D|-------------3-3-------------5---|-----5-5-------------5-5---------|  
A|-----3-3-------------5-5---------|-3-3-------------3-3-------------|
E|-1-1-------------3-3-------------|---------------------------------|
   1 e + a 2 e + a 3 e + a 4 e + a   1 e + a 2 e + a 3 e + a 4 e + a

[Chorus 2]
   Dm              G                 C               Am
e|---------------------------------|---------------------------------|
B|---------6-6---------------------|---------5-5-------------1-1-----|
G|-------------7-7---------4-4-----|-------------5-5-------------2-2-|
D|-----7-7---------------------5-5-|-----5-5-------------2-2---------|  x2
A|-5-5-----------------5-5---------|-3-3-------------0-0-------------|
E|-----------------3-3-------------|---------------------------------|
   1 e + a 2 e + a 3 e + a 4 e + a   1 e + a 2 e + a 3 e + a 4 e + a
   Dm              G                 C       C/B     Am      Am7/G
e|---------------------------------|---------------------------------|
B|---------6-6---------------------|-----5-5-----5-5-----1-1-----1-1-|
G|-------------7-7---------4-4-----|---------------------------------|
D|-----7-7---------------------5-5-|---------------------------------|  
A|-5-5-----------------5-5---------|-3-3-----2-2-----0-0-------------|
E|-----------------3-3-------------|-------------------------3-3-----|
   1 e + a 2 e + a 3 e + a 4 e + a   1 e + a 2 e + a 3 e + a 4 e + a
   F               G                 C       C/B     Am      Am7/G
e|---------------------------------|---------------------------------|
B|---------------------------------|-----5-5-----5-5-----1-1-----1-1-|
G|---------2-2-------------4-4-----|---------------------------------|
D|-------------3-3-------------5-5-|---------------------------------|
A|-----3-3-------------5-5---------|-3-3-----2-2-----0-0-------------|
E|-1-1-------------3-3-------------|-------------------------3-3-----|
   1 e + a 2 e + a 3 e + a 4 e + a   1 e + a 2 e + a 3 e + a 4 e + a

[Chorus 3]
   Dm              G                 C               Am
e|---------------------------------|---------------------------------|
B|---------6-6---------------------|---------5-5-------------1-1-----|
G|-------------7-7---------4-4-----|-------------5-5-------------2-2-|
D|-----7-7---------------------5-5-|-----5-5-------------2-2---------|  x2
A|-5-5-----------------5-5---------|-3-3-------------0-0-------------|
E|-----------------3-3-------------|---------------------------------|
   1 e + a 2 e + a 3 e + a 4 e + a   1 e + a 2 e + a 3 e + a 4 e + a
   Dm              G                 C       C/B     Am      Am7/G
e|---------------------------------|---------------------------------|
B|---------6-6---------------------|-----5-5-----5-5-----1-1-----1-1-|
G|-------------7-7---------4-4-----|---------------------------------|
D|-----7-7---------------------5-5-|---------------------------------|  
A|-5-5-----------------5-5---------|-3-3-----2-2-----0-0-------------|
E|-----------------3-3-------------|-------------------------3-3-----|
   1 e + a 2 e + a 3 e + a 4 e + a   1 e + a 2 e + a 3 e + a 4 e + a
   F               G               
e|---------------------------------|---------------------------------|
B|---------------------------------|---------------------------------|
G|---------2-2---------------------|---------------------------------|
D|-------------3-3-----2-2-4-------|---------------------------------|
A|-----3-3-------------------------|---------------------------------|
E|-1-1-------------3-3-------------|---------------------------------|
   1 e + a 2 e + a 3 e + a 4 e + a   1 e + a 2 e + a 3 e + a 4 e + a
 
2018-12-23T08:46:59+00:00