COME OUT AND PLAY – BILLIE EILISH GUITAR LESSON

4.5/10

DIFFICULTY

STANDARD TUNING

NO CAPO

Guitar Chord & Songwriting Cheat Sheet

GUITARZERO2HERO FREEBIE:

CHORD & SONGWRITING CHEAT SHEET

MASTER OVER 200+ CHORDS & MORE - YOU'LL ALSO RECEIVE THE LATEST NEWS & UPDATES FROM GUITARZERO2HERO

CHORD SHAPES

Welcome to this Come Out & Play Guitar Tutorial by Billie Eilish!
I’m a big fan of this track, Billie has an incredibly beautiful and delicate voice so it’s great to hear this track which has a nice acoustic guitar part throughout the whole song. This song involves a bit of fingerpicking but it’s not too difficult and just requires a guitar in standard tuning!

Enjoy! Like this #comeoutandplay video by #billieeilish and subscribe to the channel for more videos in the future!

-Dave Tran (Your online guitar teacher ūüėĀ)

[Intro]
C  C
F  F

[Intro/Verse Riff]
e|---------------------------------|---------------------------------|
B|-------1-------1p0---------------|-------1-------1p0---------------|
G|-----0-----0---------0-------0---|-----0-----0---------------------|
D|---2---------2-----------2-------|---2---------2-------------------|
A|-3-------------------------------|-3-------------------------------|
E|---------------------------------|---------------------------------|
   1 e + a 2 e + a 3 e + a 4 e + a   1 e + a 2 e + a 3 e + a 4 e + a

e|---------------------------------|---------------------------------|
B|-------1-------1p0---------------|-------1-------1p0---------------|
G|-----2-----2---------2-------2---|-----2-----2---------------------|
D|---3---------3-----------3-------|---3---------3-------------------|
A|---------------------------------|---------------------------------|
E|-1-------------------------------|-1-------------------------------|
   1 e + a 2 e + a 3 e + a 4 e + a   1 e + a 2 e + a 3 e + a 4 e + a

[Verse]
     C               
Wake up and smell the coffee               
Is your cup half full or empty?
        F                
When we talk, you say it softly
      F                           F    C    C         
But I love it when you're awfully quiet, hmm,  quiet
F   F
    C              
You see a piece of paper
      C           
Could be a little greater
     F                 
Show me what you could make her
       F                    C     
You'll never know until you try it
                  C       F        F
You don't have to keep it quiet


[Chorus]
      Dm                G
And I know it makes you ner-vous
      C      G/B        Am
But I promise you, it's worth it
        Dm                          G
To show 'em every-thing you kept in-side

e|-------1-------1-------1---------|-------3-------3-------3---------|
B|-----3-----3-------3-------------|-----3-----3-------3-------------|
G|---2---------2-------2-----------|---0---------0-------0-----------|
D|-0-------------------------------|---------------------------------|
A|---------------------------------|---------------------------------|
E|---------------------------------|-3-------------------------------|
   1 e + a 2 e + a 3 e + a 4 e + a   1 e + a 2 e + a 3 e + a 4 e + a

e|---------------------------------|---------------0-----------------|
B|-------1---------------0---------|-------1-------------------------|
G|-----0---------------0-----------|-----2-----2---------------------|
D|---2---------------0-------------|---2---------2-------------------|
A|-3---------------2---------------|-0-------------------------------|
E|---------------------------------|---------------------------------|
   1 e + a 2 e + a 3 e + a 4 e + a   1 e + a 2 e + a 3 e + a 4 e + a

e|-------1-------1-------1---------|-------3-------3-----------------|
B|-----3-----3-------3-------------|-----3-----3---------------------|
G|---2---------2-------2-----------|---0---------0-------------------|
D|-0-------------------------------|---------------------------------|
A|---------------------------------|---------------------------------|
E|---------------------------------|-3-------------------------------|
   1 e + a 2 e + a 3 e + a 4 e + a   1 e + a 2 e + a 3 e + a 4 e + a

[Post Chorus]
     C   Em F       C  Em F 
Don't hide,   don't hide
    C      Em         F
Too shy to say, but I hope you stay
      C   Em F
Don't hide a-way
N.C.         C       C
Come out and play


[Verse]
     C               
Look up, out of your window
    C                  
See snow, won't let it in though
      F              
Leave home, feel the wind blow
            F                            C    C
'Cause it's colder here inside in silence
                          F      F
You don't have to keep it quiet


[Chorus]
      Dm                G
And I know it makes you ner-vous
      C      G/B        Am
But I promise you, it's worth it
        Dm                          G
To show 'em every-thing you kept in-side


[Post Chorus]
     C   Em F       C  Em F 
Don't hide,   don't hide
    C      Em         F
Too shy to say, but I hope you stay
      C   Em F
Don't hide a-way
N.C.         C      C
Come out and play
2018-12-07T03:46:44+00:00