BE MY MISTAKE – THE 1975 GUITAR LESSON

4/10

DIFFICULTY

STANDARD TUNING

CAPO ON 1ST

Guitar Chord & Songwriting Cheat Sheet

GUITARZERO2HERO FREEBIE:

CHORD & SONGWRITING CHEAT SHEET

MASTER OVER 200+ CHORDS & MORE - YOU'LL ALSO RECEIVE THE LATEST NEWS & UPDATES FROM GUITARZERO2HERO

CHORD SHAPES

Welcome to this Be My Mistake Guitar Tutorial by The 1975!

This is my favourite track from The 1975’s new album “A Brief Inquiry into Online Relationships”. It’s a really stripped back and raw song with beautiful vocals and a really soothing guitar backing. In this video i’ll teach you exactly how to play this song, even with all the small hammer on embellishments. This is a fairly slow song so most beginners should be able to pick it up with some practice.

Enjoy! Like this #bemymistake video by #the1975 and subscribe to the channel for more videos in the future!

-Dave Tran (Your online guitar teacher ūüėĀ)

---------------------------------------------
         CAPO ON 1ST FRET
---------------------------------------------

[Intro] (hammer ons used for Verses as well)
   C                         F
e|-------------------------|-------------------------|
B|-1-----1-1-1-1---1---1---|-1-----1-1-1-1---1---1---|
G|-0-----0-0-0-0---0---0---|-2-----2-2-2-0h2-0---2---|
D|-2-----2-2-2-0h2-0---2---|-3-----3-3-3-3---3---3---|   x2
A|-3-----3-3-3-3---3---3---|-3-----3-3-3-3---3---3---|
E|-------------------------|-1-----1-1-1-1---1---1---|
   D - - U D U D - D - D -   D - - U D U D - D - D -  

   C                         G
e|-------------------------|-------------------------|
B|-1-----1-1-1-1---1---1---|-3-----3-3-3-3---3-------|
G|-0-----0-0-0-0---0---0---|-0-----0-0-0-0---0-------|
D|-2-----2-2-2-0h2-0---2---|-0-----0-0-0-0---2-------|   
A|-3-----3-3-3-3---3---3---|-2-----2-2-2-2---x-------|
E|-------------------------|-3-----3-3-3-3---3---0---|
   D - - U D U D - D - D -   D - - U D U D - D - D -  

e|-------------------------|
B|-1-----1-1-1-1-----1-1-1-|
G|-2-----2-2-2-2-----2-2-2-|
D|-3-----3-3-3-3-----3-3-3-|   X2
A|-3-----3-3-3-3-----3-3-3-|
E|-1-----1-1-1-1-----1-1-1-|
   D - - U D U D - - U D U

[Verse 1]
               C         F           C
(And) be my mistake and turn out the light
    F               C  C/B     Am C/G   Fsus2   G
She bought me those jeans, the ones you like
               C     F              
I don't wanna hug, I just wanna sleep
                   C     G               Fsus2     G
The smell of your hair reminds me of her feet


[Chorus]
    F                      C
So don't wait outside my hotel room
      G                      Am  G
Just wait till I give you a sign
       F     C             G
'Cause I get lonesome sometimes
              F                  C
Save all the jokes you're gonna make
         G/G#                    Am  G
While I see how much drink I can take
     F C  G    
Then be   my mistake

[Break]
C F C F
C F

[Verse 2]
                  C
I shouldn't have called
F                     C
  'cause we shouldn't speak
F                C      G
  You do make me hard
                 Fsus2    G
but she makes me weak


[Pre-Chorus]

     F                     C
And don't wait outside my hotel room
      G                      Am  G
Just wait till I give you a sign
       F Am   C            G
'Cause I get lonesome sometimes


[Chorus]
    F                      C
So don't wait outside my hotel room
      G                      Am  G
Just wait till I give you a sign
       F     C             G
'Cause I get lonesome sometimes
              F                  C
Save all the jokes you're gonna make
         G/G#                    Am  G
While I see how much drink I can take
     F C  G    
Then be   my mistake


[Outro]
C  F  C  F
C  F  C  F
C
2018-12-05T01:45:28+00:00