NEVER TEAR US APART – INSX GUITAR LESSON

4/10

DIFFICULTY

STANDARD TUNING

NO CAPO

Guitar Chord & Songwriting Cheat Sheet

GUITARZERO2HERO FREEBIE:

CHORD & SONGWRITING CHEAT SHEET

MASTER OVER 200+ CHORDS & MORE - YOU'LL ALSO RECEIVE THE LATEST NEWS & UPDATES FROM GUITARZERO2HERO

CHORD SHAPES

Welcome to this Never Tear Us Apart Guitar Tutorial by INSX!

This is an amazing song by one of my favourite Australian artists. It’s an incredibly simple song to play and just requires a guitar in standard tuning with no capo. In this lesson i’ll also teach you how to play the saxophone solo on the guitar. It’s fun and simple to play!

Enjoy! Like this #nevertearusapart video by #INXS and subscribe to the channel for more videos in the future!

-Dave Tran (Your online guitar teacher ūüėĀ)

[Intro]
Am   F  Dm   F


[Verse]
      Am               F
Don't ask me, what you know is true
              Dm          F
Don't have to tell you, I love your precious heart


[Chorus]
C        F
I
      C        F
I was standing
         C        F
You were there
           C        F
Two worlds collided
               G
And they could never tear us apart


[Break]
E|------------------------------|
B|------------------------------|
G|------------------------------|
D|------------------------------|   x2
A|-----3--5--7-7-7-7-7-7-7------|
E|--5--------5-5-5-5-5-5-5------|  


[Verse]
         Am         F
We could live for a thousand years
         Dm            F
But if I hurt you, I'd make wine from your tears
  Am            F
I told you that we could fly
         Dm                 F
Cause we all have wings but some of us don't know why


[Chorus]
C        F
I
      C        F
I was standing
         C        F
You were there
           C        F
Two worlds collided
               G
And they could never, ever, tear us apart


[Break]
E|------------------------------|
B|------------------------------|
G|------------------------------|
D|------------------------------|   x2
A|-----3--5--7-7-7-7-7-7-7------|
E|--5--------5-5-5-5-5-5-5------|   


[SOLO]
e|---------------------------------------------------------------|
B|-15/17-------17-16-15---13-------------------------------------|
G|-------------------------------14p12-14------------------------|
D|---------------------------------------------------------------|
A|---------------------------------------------------------------|
E|---------------------------------------------------------------|

e|-12/15---12----12-12-------------------12----13----15----------|
B|------------15----------15-13----15----------------------------|
G|---------------------------------------------------------------|
D|---------------------------------------------------------------|
A|---------------------------------------------------------------|
E|---------------------------------------------------------------|

Am         F
Dm         F


[Chorus]
C        F
I
(Don't ask me)
      C        F
I was standing
(You know it's true)
         C        F
You were there
(Worlds collided)
           C        F
Two worlds collided
(Shining through)
               G
And they could never tear us apart

2018-11-22T08:49:15+00:00