EXPECTATIONS – LAUREN JAUREGUI GUITAR LESSON

4/10

DIFFICULTY

STANDARD TUNING

NO CAPO

Guitar Chord & Songwriting Cheat Sheet

GUITARZERO2HERO FREEBIE:

CHORD & SONGWRITING CHEAT SHEET

MASTER OVER 200+ CHORDS & MORE - YOU'LL ALSO RECEIVE THE LATEST NEWS & UPDATES FROM GUITARZERO2HERO

CHORD SHAPES

Welcome to this Expectations Guitar Tutorial by Lauren Jauregui! This song has a cool guitar riff played throughout the whole track but there’s also a killer guitar solo in the bridge as well! In this lesson I’ll teach you not only the rhythm but the solo note for note. For the beginners out there, I also teach an easy strumming pattern if you just want to play and sing along.

Now the solo is definitely more on the advanced level so I would only suggest trying to play it if you’re familiar with lead playing already otherwise it may be rather frustrating for beginners as there are a lot of quick licks.

I also have a guest vocalist singing on top for context, she’s a fellow you-tuber. Check out her youtube channel below 🙂

https://www.youtube.com/user/XxMissAmandaLeexX

Enjoy! Like this #expectations video by #laurenjauregui and subscribe to the channel for more #guitartutorials videos in the future!

-Dave Tran (Your online guitar teacher 😁)

[Main Riff]

e|-------5-----|-------7-----|-------2-----|-------7------|
B|-------5-----|-------8-----|-------4-----|-------8------|
G|-------------|-----9-------|-----2-------|-----7--------|
D|-----7-------|---9---------|---4---------|---9----------|
A|---7---------|-7-----------|-2-----------|-7------------|
E|-5-----------|-------------|-------------|--------------|

[Solo]
e|---------------------------------------------------------------------------|
B|------------------------15-15----------------------------------------------|
G|-------12-14-15pbr14p12----14b16r14---------12h14-12h14~----12-------------|
D|-12-14--------------------------------14p12-------------------14p12--------|
A|-------------------------------------------------------------------14p12---|
E|---------------------------------------------------------------------------|

e|---------------------------------------------------------------------------|
B|-----17----17~-------------------------------------------------------------|
G|-/16----16----------------16\14-12-14/16-12--------------------------------|
D|--------------------------------------------14-14~--p12--------------------|
A|---------------------------------------------------------------------------|
E|---------------------------------------------------------------------------|

e|-12-12-15b17r15b17r15b18---12----12-15-12~-h15---17b19r17b19r17~b19----17b19-17b19-15---------|
B|------------------------------12------------------------------------------------------17-17~--|
G|----------------------------------------------------------------------------------------------|
D|----------------------------------------------------------------------------------------------|
A|----------------------------------------------------------------------------------------------|
E|----------------------------------------------------------------------------------------------|

e|-19h21---21-19-21---21-19-21--21-19-21-19--------17b19r17b19r17~b19----17b19-17b19-15---------|
B|------------------------------------------20------------------------------------------17-17~--|
G|----------------------------------------------------------------------------------------------|
D|----------------------------------------------------------------------------------------------|
A|----------------------------------------------------------------------------------------------|
E|----------------------------------------------------------------------------------------------|

e|----------------------------------------------------------------------------------------------------------|
B|-15h17p15---------15h17p15---------------------------------------------------------15-15------15p12-15b17-|
G|---------16-14~-----------16-12~-----12-11h12p11----------------------12-15pbr14p12---14b16---------------|
D|----------------------------------/14-----------14-12------------12-14------------------------------------|
A|-----------------------------------------------------14-12--12-14-----------------------------------------|
E|----------------------------------------------------------15----------------------------------------------|
[Verse]
Am              Em
Up in bed, all alone
B7                     Em    
Wondering where you've been
Am            
Ten past three
Em             B7     Em
I know the club closed at two A.M
Am                               Em    
I've already been through about seven scenarios
B7                         Em
'Bout what it was that change your mind
Am                         Em
Knowing very well that you told me
You'd come home
B7                    Em
And it happens every time

[Chorus]
           Am      Em
Wish I had no expectations
  B7                               Em
I wish that I could get it through your head
     Am        Em
With no confrontation
       B7                            Em
I really wish we could talk about it instead
          Am                         Em
All these tears that I cry while I'm turned to the side
           B7                   Em
And you're in the same fucking bed
           Am      Em   
Wish I had no expectations
N.C.
But I expect, you expect, we expect

[Verse]
Am              Em
I don't mean to pry
        B7              Em
I don't need no play by play (Nah)
Am         Em
All I need from your side
       B7            Em
Is for you to communicate
   Am                  Em
Respect for my time, respect for my space
  B7               Em
Respect for my energy
                 Am                         Em
'Cause I've been waiting here all night for you to warm me up
         B7                     Em
And you haven't once thought of me

[Chorus]
           Am      Em
Wish I had no expectations
  B7                               Em
I wish that I could get it through your head
     Am        Em
With no confrontation
       B7                            Em
I really wish we could talk about it instead
          Am                         Em
All these tears that I cry while I'm turned to the side
           B7                   Em
And you're in the same fucking bed
           Am      Em   
Wish I had no expectations
N.C.
But I expect, you expect, we expect

[Chorus]
           Am      Em
Wish I had no expectations
  B7                               Em
I wish that I could get it through your head
     Am        Em
With no confrontation
       B7                            Em
I really wish we could talk about it instead
          Am                         Em
All these tears that I cry while I'm turned to the side
           B7                   Em
And you're in the same fucking bed
           Am      Em   
Wish I had no expectations
N.C.
But I expect, you expect, we expect

2018-11-15T00:38:36+00:00