6/10

DIFFICULTY

FLAT TUNING

NO CAPO

Guitar Chord & Songwriting Cheat Sheet

GUITARZERO2HERO FREEBIE:

CHORD & SONGWRITING CHEAT SHEET

MASTER OVER 200+ CHORDS & MORE - YOU'LL ALSO RECEIVE THE LATEST NEWS & UPDATES FROM GUITARZERO2HERO

CHORD SHAPES

Welcome to this More Than Words Guitar Tutorial by Extreme!

After hundreds of requests over the lifetime of the channel, I’ve finally made a lesson for this beautiful song. To be honest, I would have made it earlier, but I wanted to make sure I did the song justice and filmed it right.

In this lesson I’ll run through basically note for note, the studio version of More Than Words including the TABS as well as explanations on the timing and fingerpicking. Nuno Bettencourt’s guitaring is this track is second to none and the song is one of my all time favourites.

A big thank you to Amanda again for her beautiful vocals in the song playthrough at the end of the video. You can check out her youtube channel here – https://www.youtube.com/user/XxMissAmandaLeexX

Enjoy! Like this #morethanwords video by #extreme and subscribe to the channel for more #guitartutorial videos in the future!

-Dave Tran (Your online guitar teacher ūüėĀ)

[Intro]
    G.            Cadd9             Am7               C         D       G
eb|---3-x-----3-x---|---3-x---3---x---|---0-x---3---x---|---0-x-2---3-x---|
Bb|---3-x-3---3-x-3-|---3-x---3-3-x-1-|---1-x---1-1-x-1-|---1-x-3---3-x-3-|
Gb|---0-x-0---0-x-0-|---0-x---0-0-x-0-|---0-x---0-0-x-0-|---0-x---2---x-0-|
Db|-----x-------x---|-----x-------x---|-----x-------x---|-----x-0-----x---|
Ab|-----x-2-----x-3-|-----x-3-3-3-x-0-|-----x-0-0-0-x-3-|-----x-------x---|
Eb|-3---x-------x---|-----x-------x---|-----x-------x---|-----x-------x-3-|
    1 + 2 + 3 + 4 +   1 + 2 + 3 + 4 +   1 + 2 + 3 + 4 +   1 + 2 + 3 + 4 +
    G.            Cadd9             Am7               C         D       G
eb|---3-x-----3-x---|---3-x---3---x---|---0-x---3---x---|---0-x-2---3-x---|
Bb|---3-x-3---3-x-3-|---3-x---3-3-x-1-|---1-x---1-1-x-1-|---1-x-3---3-x-3-|
Gb|---0-x-0---0-x-0-|---0-x---0-0-x-0-|---0-x---0-0-x-0-|---0-x---2---x-0-|
Db|-----x-------x---|-----x-------x---|-----x-------x---|-----x-0-----x---|
Ab|-----x-2-----x-3-|-----x-3-3-3-x-0-|-----x-0-0-0-x-3-|-----x-------x---|
Eb|-----x-------x---|-----x-------x---|-----x-------x---|-----x-------x-3-|
    1 + 2 + 3 + 4 +   1 + 2 + 3 + 4 +   1 + 2 + 3 + 4 +   1 + 2 + 3 + 4 +

[Verse 1]
    G.            Cadd9             Am7               C         D       G
eb|---3-x-----3-x---|---3-x---3---x---|---0-x---3---x---|---0-x-2---3-x---|
Bb|---3-x-3---3-x-3-|---3-x---3-3-x-1-|---1-x---1-1-x-1-|---1-x-3---3-x-3-|
Gb|---0-x-0---0-x-0-|---0-x---0-0-x-0-|---0-x---0-0-x-0-|---0-x---2---x-0-|
Db|-----x-------x---|-----x-------x---|-----x-------x---|-----x-0-----x---|
Ab|-----x-2-----x-3-|-----x-3-3-3-x-0-|-----x-0-0-0-x-3-|-----x-------x---|
Eb|-----x-------x---|-----x-------x---|-----x-------x---|-----x-------x-3-|
    1 + 2 + 3 + 4 +   1 + 2 + 3 + 4 +   1 + 2 + 3 + 4 +   1 + 2 + 3 + 4 +
    G.            Cadd9             Am7               C         D       Em
eb|---3-x-----3-x---|---3-x---3---x---|---0-x---3---x---|---0-x-2---3-x---|
Bb|---3-x-3---3-x-3-|---3-x---3-3-x-1-|---1-x---1-1-x-1-|---1-x-3---3-x-0-|
Gb|---0-x-0---0-x-0-|---0-x---0-0-x-0-|---0-x---0-0-x-0-|---0-x---2---x-0-|
Db|-----x-------x---|-----x-------x---|-----x-------x---|-----x-0-----x---|
Ab|-----x-2-----x-3-|-----x-3-3-3-x-0-|-----x-0-0-0-x-3-|-----x-------x---|
Eb|-----x-------x---|-----x-------x---|-----x-------x---|-----x-------x-0-|
    1 + 2 + 3 + 4 +   1 + 2 + 3 + 4 +   1 + 2 + 3 + 4 +   1 + 2 + 3 + 4 +
    Em.           Am7                   D             G         D/F#    Em
eb|---0-x-----0-x---|---0-x---3---x---|-2---x-2---0-x---|---3-x-----0-x---|
Bb|---0-x-0---0-x-1-|---1-x---1-1-x---|-3---x-3---3-x-3-|---3-x-3---3-x-0-|
Gb|---0-x-0---0-x-0-|---0-x---0-0-x---|-2---x-2---2-x-0-|---0-x-2---2-x-0-|
Db|-----x-------x---|-----x-------x-0-|-0---x-0-----x---|-----x-------x---|
Ab|-----x-2-----x-0-|-----x-0-0-0-x---|-----x-------x---|-----x-------x---|
Eb|-----x-------x---|-----x-------x---|-----x-------x-3-|---3-x-2---2-x-0-|
    1 + 2 + 3 + 4 +   1 + 2 + 3 + 4 +   1 + 2 + 3 + 4 +   1 + 2 + 3 + 4 +
    Em.           Am7                   D7            G7                C
eb|---0-x-----0-x---|---0-x---3---x---|-2---x-0---2-x---|---1-x-----1-x---|
Bb|---0-x-0---0-x-1-|---1-x---1-1-x---|-1---x-1---1-x-0-|---0-x-0---0-x-1-|
Gb|---0-x-0---0-x-0-|---0-x---0-0-x---|-2---x-2---2-x-0-|---0-x-0---0-x-0-| 
Db|-----x-------x---|-----x-------x-0-|-0---x-0-----x---|-----x-------x---|
Ab|-----x-2-----x-0-|-----x-0-0-0-x---|-----x-------x---|-----x-2-----x-3-|
Eb|-----x-------x---|-----x-------x---|-----x-------x-3-|-----x-------x---|
    1 + 2 + 3 + 4 +   1 + 2 + 3 + 4 +   1 + 2 + 3 + 4 +   1 + 2 + 3 + 4 +
    C.            Cm                G                 Em7         
eb|---0-x-------x---|---3-x---3-3-x---|---3-x---3-3---3-|-x-3-x-3-x-3-x---|
Bb|---1-x---3-1-x-4-|---4-x---4-4-x---|---3-x---3-3---3-|-x-3-x-3-x-3-x---|
Gb|---0-x---0-0-x-5-|---5-x---5-5-x---|---0-x---0-0---0-|-x-0-x-0-x-0-x---|
Db|-----x-------x---|-----x-------x---|-----x-----------|-x---x-2-x---x---|
Ab|-----x-3-3-3-x-3-|-----x-3-3-3-x---|-----x-----------|-x-2-x---x-2-x---|
Eb|-----x-------x---|-----x-------x-3-|-----x-3-3-3-2-0-|-x---x---x---x---|
    1 + 2 + 3 + 4 +   1 + 2 + 3 + 4 +   1 + 2 + 3 + 4 +   1 + 2 + 3 + 4 +
    Am7               D7
eb|-0---------------|-2---------------|
Bb|-1---------------|-1---------------|
Gb|-0---------------|-2---------------|
Db|-2---------------|-0---------------|
Ab|-0---------------|-----------------|
Eb|-----------------|-----------------|
    1 + 2 + 3 + 4 +   1 + 2 + 3 + 4 +   

[Chorus]
    G                                   D/F#          Em        Bm7     C
eb|---3-x-----3-x---|---3-x-----3-x---|-----0-----0-x-0-|-x---x-2---2-x---|
Bb|---3-x-3---3-x-3-|---3-x-3---3-x---|-3---3---3-3-x-0-|-x-0-x-3---3-x-1-|
Gb|---0-x-0---0-x-0-|---0-x-0---0-x---|-2---2---2-2-x-0-|-x-0-x-2---2-x-0-|
Db|-----x-------x---|-----x-------x---|-------------x---|-x---x---4---x---|
Ab|-----x-2-----x---|-----x-2-----x---|-------------x---|-x-2-x-2-----x-3-|
Eb|-3---x-------x-3-|-----x-------x-0-|-2-------2---x-0-|-x---x-------x---|
    1 + 2 + 3 + 4 +   1 + 2 + 3 + 4 +   1 + 2 + 3 + 4 +   1 + 2 + 3 + 4 +
    C.                              Am7               D                 G 
eb|---0-x---0---x---|---0-x-0-x---x---|---0-x---0---x-2-|---2-x-2---0-x---|
Bb|---1-x---1-1-x-1-|---1-x-1-x-1-x-1-|---1-x---1-1-x-3-|---3-x-3---3-x-3-|
Gb|---0-x---0-0-x-0-|---0-x-0-x-0-x-0-|---0-x---0-0-x-2-|---2-x-2---2-x-0-|
Db|-----x-------x---|-----x---x---x---|-----x-------x-0-|-----x-0-----x---|
Ab|-----x-3-3-3-x-3-|-----x-3-x-2-x-0-|-----x-0-0-0-x---|-----x-------x---|
Eb|-----x-------x---|-----x---x---x---|-----x-------x---|-----x-------x-3-|
    1 + 2 + 3 + 4 +   1 + 2 + 3 + 4 +   1 + 2 + 3 + 4 +   1 + 2 + 3 + 4 +
    G                                   D/F#          Em        Bm7     C
eb|---3-x-----3-x---|---3-x-----3-x---|-----0-----0-x-0-|-x---x-2---2-x---|
Bb|---3-x-3---3-x-3-|---3-x-3---3-x---|-3---3---3-3-x-0-|-x-0-x-3---3-x-1-|
Gb|---0-x-0---0-x-0-|---0-x-0---0-x---|-2---2---2-2-x-0-|-x-0-x-2---2-x-0-| 
Db|-----x-------x---|-----x-------x---|-------------x---|-x---x---4---x---|
Ab|-----x-2-----x---|-----x-2-----x---|-------------x---|-x-2-x-2-----x-3-|
Eb|-----x-------x-3-|-----x-------x-0-|-2-------2---x-0-|-x---x-------x---|
    1 + 2 + 3 + 4 +   1 + 2 + 3 + 4 +   1 + 2 + 3 + 4 +   1 + 2 + 3 + 4 +
    C.                              Am7                   D7                
eb|---0-x---0---x---|---0-x-0-x---x---|---0-x---0---x---|-2---------------|
Bb|---1-x---1-1-x-1-|---1-x-1-x-1-x-1-|---1-x---1-1-x---|-1---------------|
Gb|---0-x---0-0-x-0-|---0-x-0-x-0-x-0-|---0-x---0-0-x---|-2---------------|
Db|-----x-------x---|-----x---x---x---|-----x-------x---|-0---------------|
Ab|-----x-3-3-3-x-3-|-----x-3-x-2-x-0-|-----x-0-0-0-x---|-----------------|
Eb|-----x-------x---|-----x---x---x---|-----x-------x---|-----------------|
    1 + 2 + 3 + 4 +   1 + 2 + 3 + 4 +   1 + 2 + 3 + 4 +   1 + 2 + 3 + 4 +

[Break]
    G             Cadd9             Am7               C         D       G
eb|---3-x-----3-x---|---3-x---3---x---|---0-x---3---x---|---0-x-2---3-x---|
Bb|---3-x-3---3-x-3-|---3-x---3-3-x-1-|---1-x---1-1-x-1-|---1-x-3---3-x-3-|
Gb|---0-x-0---0-x-0-|---0-x---0-0-x-0-|---0-x---0-0-x-0-|---0-x---2---x-0-|
Db|-----x-------x---|-----x-------x---|-----x-------x---|-----x-0-----x---|
Ab|-----x-2-----x-3-|-----x-3-3-3-x-0-|-----x-0-0-0-x-3-|-----x-------x---|
Eb|-3---x-------x---|-----x-------x---|-----x-------x---|-----x-------x-3-|
    1 + 2 + 3 + 4 +   1 + 2 + 3 + 4 +   1 + 2 + 3 + 4 +   1 + 2 + 3 + 4 +
    G.            Cadd9                 Am7               D7        KNOCK 
eb|---3-x-----3-x---|---0-x---3---x---|-0---------------|-2---------------|
Bb|---3-x-3---3-x-3-|---3-x---3-3-x---|-1---------------|-1---------+-+---|
Gb|---0-x-0---0-x-0-|---0-x---0-0-x---|-0---------------|-2---------+-+---|
Db|-----x-------x---|-----x-------x---|-2---------------|-0---------+-+---|
Ab|-----x-2-----x-3-|-----x-3-3-3-x---|-0---------------|-----------------|
Eb|-----x-------x---|-----x-------x---|-----------------|-----------------|
    1 + 2 + 3 + 4 +   1 + 2 + 3 + 4 +   1 + 2 + 3 + 4 +   1 + 2 + 3 + 4 +

[Verse 2]
    G.            Cadd9             Am7               C         D       G
eb|---3-x-----3-x---|---3-x---3---x---|---0-x---3---x---|---0-x-2---3-x---|
Bb|---3-x-3---3-x-3-|---3-x---3-3-x-1-|---1-x---1-1-x-1-|---1-x-3---3-x-3-|
Gb|---0-x-0---0-x-0-|---0-x---0-0-x-0-|---0-x---0-0-x-0-|---0-x---2---x-0-|
Db|-----x-------x---|-----x-------x---|-----x-------x---|-----x-0-----x---|
Ab|-----x-2-----x-3-|-----x-3-3-3-x-0-|-----x-0-0-0-x-3-|-----x-------x---|
Eb|-3---x-------x---|-----x-------x---|-----x-------x---|-----x-------x-3-|
    1 + 2 + 3 + 4 +   1 + 2 + 3 + 4 +   1 + 2 + 3 + 4 +   1 + 2 + 3 + 4 +
    G.            Cadd9             Am7               C         D       Em
eb|---3-x-----3-x---|---3-x---3---x---|---0-x---3---x---|---0-x-2---3-x---|
Bb|---3-x-3---3-x-3-|---3-x---3-3-x-1-|---1-x---1-1-x-1-|---1-x-3---3-x-0-|
Gb|---0-x-0---0-x-0-|---0-x---0-0-x-0-|---0-x---0-0-x-0-|---0-x---2---x-0-|
Db|-----x-------x---|-----x-------x---|-----x-------x---|-----x-0-----x---|
Ab|-----x-2-----x-3-|-----x-3-3-3-x-0-|-----x-0-0-0-x-3-|-----x-------x---|
Eb|-----x-------x---|-----x-------x---|-----x-------x---|-----x-------x-0-|
    1 + 2 + 3 + 4 +   1 + 2 + 3 + 4 +   1 + 2 + 3 + 4 +   1 + 2 + 3 + 4 +
    Em.           Am7                   D             G         D/F#    Em
eb|---0-x-----0-x---|---0-x---3---x---|-2---x-2---0-x---|-x-3-x---x-0-x---|
Bb|---0-x-0---0-x-1-|---1-x---1-1-x---|-3---x-3---3-x-3-|-x-3-x-3-x-3-x-0-|
Gb|---0-x-0---0-x-0-|---0-x---0-0-x---|-2---x-2---2-x-0-|-x-0-x-2-x-2-x-0-|
Db|-----x-------x---|-----x-------x-0-|-0---x-0-----x-0-|-x-0-x-0-x-0-x-2-|
Ab|-----x-2-----x-0-|-----x-0-0-0-x---|-----x-------x-2-|-x-2-x-0-x-0-x-2-|
Eb|-----x-------x---|-----x-------x---|-----x-------x-3-|-x-3-x-2-x-2-x-0-|
    1 + 2 + 3 + 4 +   1 + 2 + 3 + 4 +   1 + 2 + 3 + 4 +   1 + 2 + 3 + 4 +
    Em.           Am7                   D7            G7                C
eb|-----0-------x-0-|-----x---3---x---|-2---x-0---2-x---|---1-x-----1-x---|
Bb|-----0---+-+-x-1-|-----x---1-1-x---|-1---x-1---1-x-0-|---0-x-0---0-x-1-|
Gb|-----0---+-+-x-0-|-----x---0-0-x---|-2---x-2---2-x-0-|---0-x-0---0-x-0-|
Db|-----2---+-+-x-2-|-----x-------x-0-|-0---x-0-----x---|-----x-------x---|
Ab|-----2---+-+-x-0-|-----x-0-0-0-x---|-----x-------x---|-----x-2-----x-3-|
Eb|-----0-------x---|-----x-------x---|-----x-------x-3-|-----x-------x---|
    1 + 2 + 3 + 4 +   1 + 2 + 3 + 4 +   1 + 2 + 3 + 4 +   1 + 2 + 3 + 4 +
    C.            Cm                G                 Em7         
eb|---0-x-------x---|---3-x---3-3-x---|---3-x---3-3---3-|-x-3-x-3-x-3-x---|
Bb|---1-x---3-1-x-4-|---4-x---4-4-x---|---3-x---3-3---3-|-x-3-x-3-x-3-x---|
Gb|---0-x---0-0-x-5-|---5-x---5-5-x---|---0-x---0-0---0-|-x-0-x-0-x-0-x---|
Db|-----x-------x-5-|-----x-------x---|-----x-----------|-x---x-2-x---x---|
Ab|-----x-3-3-3-x-3-|-----x-3-3-3-x---|-----x-----------|-x-2-x---x-2-x---|
Eb|-----x-------x---|-----x-------x-3-|-----x-3-3-3-2-0-|-x---x---x---x---|
    1 + 2 + 3 + 4 +   1 + 2 + 3 + 4 +   1 + 2 + 3 + 4 +   1 + 2 + 3 + 4 +
    Am7               D7      Adim/D
eb|-0---------------|-2-------5-------|
Bb|-1---------------|-1-------4-------|
Gb|-0---------------|-2-------5-------|
Db|-2---------------|-0-------0-------|
Ab|-0---------------|-----------------|
Eb|-----------------|-----------------|
    1 + 2 + 3 + 4 +   1 + 2 + 3 + 4 +   

[Chorus]
    G                                   D/F#          Em        Bm7     C
eb|---3-x-----3-x---|---3-x-----3-x---|-----0-----0-x-0-|-x---x-2---2-x---|
Bb|---3-x-3---3-x-3-|---3-x-3---3-x---|-3---3---3-3-x-0-|-x-0-x-3---3-x-1-|
Gb|---0-x-0---0-x-0-|---0-x-0---0-x---|-2---2---2-2-x-0-|-x-0-x-2---2-x-0-|
Db|-----x-------x---|-----x-------x---|-------------x---|-x---x---4---x---|
Ab|-----x-2-----x---|-----x-2-----x---|-------------x---|-x-2-x-2-----x-3-|
Eb|-3---x-------x-3-|-----x-------x-0-|-2-------2---x-0-|-x---x-------x---|
    1 + 2 + 3 + 4 +   1 + 2 + 3 + 4 +   1 + 2 + 3 + 4 +   1 + 2 + 3 + 4 +
    C.                              Am7               D                 G 
eb|---0-x---0---x---|---0-x-0-x---x---|---0-x---0---x-2-|---2-x-2---0-x---|
Bb|---1-x---1-1-x-1-|---1-x-1-x-1-x-1-|---1-x---1-1-x-3-|---3-x-3---3-x-3-|
Gb|---0-x---0-0-x-0-|---0-x-0-x-0-x-0-|---0-x---0-0-x-2-|---2-x-2---2-x-0-|
Db|-----x-------x---|-----x---x---x---|-----x-------x-0-|-----x-0-----x---|
Ab|-----x-3-3-3-x-3-|-----x-3-x-2-x-0-|-----x-0-0-0-x---|-----x-------x---|
Eb|-----x-------x---|-----x---x---x---|-----x-------x---|-----x-------x-3-|
    1 + 2 + 3 + 4 +   1 + 2 + 3 + 4 +   1 + 2 + 3 + 4 +   1 + 2 + 3 + 4 +
    G                                   D/F#          Em        Bm7     C
eb|---3-x-----3-x---|---3-x-----3-x---|-----0-----0-x-0-|-x---x-2---2-x---|
Bb|---3-x-3---3-x-3-|---3-x-3---3-x---|-3---3---3-3-x-0-|-x-0-x-3---3-x-1-|
Gb|---0-x-0---0-x-0-|---0-x-0---0-x---|-2---2---2-2-x-0-|-x-0-x-2---2-x-0-| 
Db|-----x-------x---|-----x-------x---|-------------x---|-x---x---4---x---|
Ab|-----x-2-----x---|-----x-2-----x---|-------------x---|-x-2-x-2-----x-3-|
Eb|-----x-------x-3-|-----x-------x-0-|-2-------2---x-0-|-x---x-------x---|
    1 + 2 + 3 + 4 +   1 + 2 + 3 + 4 +   1 + 2 + 3 + 4 +   1 + 2 + 3 + 4 +
    C.                              Am7                   D7                
eb|---0-x---0---x---|---0-x-0-x---x---|---0-x---0---x---|-2---------------|
Bb|---1-x---1-1-x-1-|---1-x-1-x-1-x-1-|---1-x---1-1-x---|-1---------------|
Gb|---0-x---0-0-x-0-|---0-x-0-x-0-x-0-|---0-x---0-0-x---|-2---------------|
Db|-----x-------x---|-----x---x---x---|-----x-------x---|-0---------------|
Ab|-----x-3-3-3-x-3-|-----x-3-x-2-x-0-|-----x-0-0-0-x---|-----------------|
Eb|-----x-------x---|-----x---x---x---|-----x-------x---|-----------------|
    1 + 2 + 3 + 4 +   1 + 2 + 3 + 4 +   1 + 2 + 3 + 4 +   1 + 2 + 3 + 4 +
    G
eb|-3-----3---------|
Bb|-3-----3---------|
Gb|-0-----0---------|
Db|-0-----0---------|
Ab|-2-----2---------|
Eb|-3-----3---------|