4/10

DIFFICULTY

STANDARD TUNING

NO CAPO

Guitar Chord & Songwriting Cheat Sheet

GUITARZERO2HERO FREEBIE:

CHORD & SONGWRITING CHEAT SHEET

MASTER OVER 200+ CHORDS & MORE - YOU'LL ALSO RECEIVE THE LATEST NEWS & UPDATES FROM GUITARZERO2HERO

CHORD SHAPES

Welcome to this Maybe It’s Time Guitar Tutorial by Bradley Cooper! If you haven’t seen the movie A Star Is Born, then go see it now! It’s amazing and definitely inspirational for any muso out there. The song itself has a lovely fingerpicking riff and is a lot simpler to play than you might think. The studio recording has a lot of improvisation in terms of the playing style which would be impossible to teach note for note, so instead i’ve simplified to a beautiful but easy to follow structure and fingerpicking pattern.

I’ll also teach you how to play an easy strummed version which is suitable for beginner who just want to play and sing.

Enjoy! Like this #maybeitstime video by #bradleycooper from #astarisborn and subscribe to the channel for more #guitartutorials videos in the future!

-Dave Tran (Your online guitar teacher ūüėĀ)

[Structure]
Intro
Chorus x2
Verse
Chorus
Verse
Chorus
Outro

[Intro]
e|---------------------------------|---------------------------------|
B|-------0---------------0---------|-------0---------------0---------|
G|-----------0---0-----------0---0-|-----------0---0-----------0---0-|
D|-----0-------0-------0-------0---|-----0-------0-------0-------0---|
A|---------------------------------|---------------------------------|
E|-3---------------3---------------|-3---------------3---------------|
   1 e + a 2 e + a 3 e + a 4 e + a   1 e + a 2 e + a 3 e + a 4 e + a

[Chorus]
   G               G                 G               G
e|---------------------------------|---------------------------------|
B|-------0---------------0---------|-------0---------------0---------|
G|-----------0---0-----------0---0-|-----------0---0-----------0---0-|
D|-----0-------0-------0-------0---|-----0-------0-------0-------0---|
A|---------------------------------|---------------------------------|
E|-3---------------3---------------|-3---------------3---------------|
   1 e + a 2 e + a 3 e + a 4 e + a   1 e + a 2 e + a 3 e + a 4 e + a
   C               C                 G               G
e|---------------------------------|---------------------------------|
B|-------1---------------1---------|-------0---------------0---------|
G|-----------0---0-----------0---0-|-----------0---0-----------0---0-|
D|-----2-------2-------2-------2---|-----0-------0-------0-------0---|
A|-3---------------3---------------|---------------------------------|
E|---------------------------------|-3---------------3---------------|
   1 e + a 2 e + a 3 e + a 4 e + a   1 e + a 2 e + a 3 e + a 4 e + a
   C               C                 G       D/F#    Em7
e|---------------------------------|---------------------------------|
B|-------1---------------1---------|-------3-------3-------3---------|
G|-----------0---0-----------0---0-|---------------------------0---0-|
D|-----2-------2-------2-------2---|-----0-------0-------2-------2---|
A|-3---------------3---------------|---------------------------------|
E|---------------------------------|-3-------2-------0---------------|
   1 e + a 2 e + a 3 e + a 4 e + a   1 e + a 2 e + a 3 e + a 4 e + a
   D               C                 G               G
e|---------------------------------|---------------------------------|
B|-------3---------------1---------|-------0---------------0---------|
G|-----2-----2---2-----------0---0-|-----------0---0-----------0---0-|
D|-0-----------0-------2-------2---|-----0-------0-------0-------0---|
A|-----------------3---------------|---------------------------------|
E|---------------------------------|-3---------------3---------------|
   1 e + a 2 e + a 3 e + a 4 e + a   1 e + a 2 e + a 3 e + a 4 e + a

[Verse]
   C               C                 G               G
e|---------------------------------|---------------------------------|
B|-------1---------------1---------|-------0---------------0---------|
G|-----------0---0-----------0---0-|-----------0---0-----------0---0-|
D|-----2-------2-------2-------2---|-----0-------0-------0-------0---|
A|-3---------------3---------------|---------------------------------|
E|---------------------------------|-3---------------3---------------|
   1 e + a 2 e + a 3 e + a 4 e + a   1 e + a 2 e + a 3 e + a 4 e + a
   C               C                 G               G
e|---------------------------------|---------------------------------|
B|-------1---------------1---------|-------0---------------0---------|
G|-----------0---0-----------0---0-|-----------0---0-----------0---0-|
D|-----2-------2-------2-------2---|-----0-------0-------0-------0---|
A|-3---------------3---------------|---------------------------------|
E|---------------------------------|-3---------------3---------------|
   1 e + a 2 e + a 3 e + a 4 e + a   1 e + a 2 e + a 3 e + a 4 e + a
   C               C                 G       D/F#    Em7
e|---------------------------------|---------------------------------|
B|-------1---------------1---------|-------3-------3-------3---------|
G|-----------0---0-----------0---0-|---------------------------0---0-|
D|-----2-------2-------2-------2---|-----0-------0-------2-------2---|
A|-3---------------3---------------|---------------------------------|
E|---------------------------------|-3-------2-------0---------------|
   1 e + a 2 e + a 3 e + a 4 e + a   1 e + a 2 e + a 3 e + a 4 e + a
   D               D                 C               C
e|---------------------------------|---------------------------------|
B|-------3---------------3---------|-------1---------------1---------|
G|-----2-----2---2-----2-----2---2-|-----------0---0-----------0---0-|
D|-0-----------0---0-----------0---|-----2-------2-------2-------2---|
A|---------------------------------|-3---------------3---------------|
E|---------------------------------|---------------------------------|
   1 e + a 2 e + a 3 e + a 4 e + a   1 e + a 2 e + a 3 e + a 4 e + a

[Outro]
   D               C                 G               G
e|---------------------------------|---------------------------------|
B|-------3---------------1---------|-------0---------------0---------|
G|-----2-----2---2-----------0---0-|-----------0---0-----------0---0-|
D|-0-----------0-------2-------2---|-----0-------0-------0-------0---|
A|-----------------3---------------|---------------------------------|
E|---------------------------------|-3---------------3---------------|
   1 e + a 2 e + a 3 e + a 4 e + a   1 e + a 2 e + a 3 e + a 4 e + a

[Intro] 
G

[Chorus 1]
G
Maybe it's time to let the old ways die
C                                    G
Maybe it's time to let the old ways die
C
It takes a lot to change a man
        G        D/F#   Em
Hell, it takes a lot to try
D                         C         G
Maybe it's time to let the old ways die

[Chorus 2]
G
Nobody knows what waits for the dead
C
Nobody knows what waits for the dead
C                                               G           D/F#        Em
Some folks just believe in the things they've heard and the things they read
D                    C             G
Nobody knows what awaits for the dead

[Verse 1]
C                                          G
I'm glad I can't go back to where I came from
C                                         G
I'm glad those days are gone, gone for good
C                                      G           D/F#   Em            D
But If I could take spirits from my past and bring them here you know I would
    C
Know I would

[Chorus 3]
G
Nobody speaks to God these days
C                           G
Nobody speaks to God these days
C                                       G        D/F#    Em
I'd like to think he's lookin' down and laughin' at our ways
D                  C          G
Nobody speaks to God these days


[Verse 2]
C                                     G
When I was a child they tried to fool me
C                                                   G
Said the worldly man was lost and that a Hell was real
C
But I've seen Hell in Reno
           G      D/F#   Em            D
And this world's one big old Catherine wheel
C
Spinning steel

[Chorus 4]
G
Maybe it's time to let the old ways die
C                                    G
Maybe it's time to let the old ways die
C
It takes a lot to change your plans
        G       D/F#       Em
And a train to change your mind
D                           C         G
Maybe it's time to let the old ways die

[Outro]
   D                             C         G
Ooh, Maybe it's time to let the old ways die