4/10

DIFFICULTY

STANDARD TUNING

NO CAPO

Guitar Chord & Songwriting Cheat Sheet

GUITARZERO2HERO FREEBIE:

CHORD & SONGWRITING CHEAT SHEET

MASTER OVER 200+ CHORDS & MORE - YOU'LL ALSO RECEIVE THE LATEST NEWS & UPDATES FROM GUITARZERO2HERO

CHORD SHAPES

Welcome to this Shallow Guitar Tutorial by Lady Gaga & Bradley Cooper! I got a lot of requests for this song and after I listened to it fell in love with the song. It’s quite original and has some stunning vocal performances – who knew Bradley Cooper could sing?! The song itself has a lovely fingerpicking riff and is a lot simpler to play than you might think. The second half of the song is mostly just strumming, so nothing too outrageous for a beginner to tackle.

My awesome friend Diana has provided the vocals with her amazing voice be sure to check out her channel and subscribe 🙂

DIANA’S CHANNEL – https://www.youtube.com/user/dianaorga
DIANA’S INSTA – https://www.instagram.com/dianaleahmusic

Enjoy! Like this #shallow video by #ladygaga from #astarisborn and subscribe to the channel for more #guitartutorials videos in the future!

-Dave Tran (Your online guitar teacher 😁)



[Intro]
   Em7     D/F#  G                     C                 G     D
e|-----------------|-----------------|-------------0---|-----------0h2p0----|
B|-----3-----3---3-|-----------------|-----1-3-------3-|---3---3--------3---|
G|-------0---2---0-|-----------------|---------0-------|---0---2----------2-|
D|---2-------------|-----------------|---2-------------|-------0------------|
A|-----------------|-----------------|-3---------3-----|--------------------|
E|-0-------2-----3-|-----------------|-----------------|-3------------------|
   1 + 2 + 3 + 4 +   1 + 2 + 3 + 4 +   1 + 2 + 3 + 4 +   1 + 2 + 3 +    4 + 

   Em7     D/F#  G                     
e|-----------------|-----------------|
B|-----3-----3---3-|-----------------|
G|-------0---2---0-|-----------------|
D|---2-------------|-----------------|
A|-----------------|-----------------|
E|-0-------2-----3-|-----------------|
   1 + 2 + 3 + 4 +   1 + 2 + 3 + 4 +   

[Verse]
   Em7     D/F#  G                     C                 G     D
e|-----------------|-----------------|-----------0-----|-----------------|
B|-----3-----3---3-|-----------------|-----1-------1---|---3---3---------|
G|-------0---2---0-|-----------------|-------0-------0-|---0---2---------|
D|---2-------------|-----------------|---2-----2-------|-------0---------|
A|-----------------|-----------------|-3---------------|-----------------|
E|-0-------2-----3-|-----------------|-----------------|-3---------------|
   1 + 2 + 3 + 4 +   1 + 2 + 3 + 4 +   1 + 2 + 3 + 4 +   1 + 2 + 3 + 4 + 

[Break]
   Em7     D/F#  G                     
e|-----------------|-----------------|
B|-----3-----3---3-|-----------------|
G|-------0---2---0-|-----------------|
D|---2-------------|-----------------|  x2
A|-----------------|-----------------|
E|-0-------2-----3-|-----------------|
   1 + 2 + 3 + 4 +   1 + 2 + 3 + 4 +  

[Verse]
   Em7     D/F#  G                     C                 G     D
e|-----------------|-----------------|-----------0-----|-----------------|
B|-----3-----3---3-|-----------------|-----1-------1---|---3---3---------|
G|-------0---2---0-|-----------------|-------0-------0-|---0---2---------|
D|---2-------------|-----------------|---2-----2-------|-------0---------|
A|-----------------|-----------------|-3---------------|-----------------|
E|-0-------2-----3-|-----------------|-----------------|-3---------------|
   1 + 2 + 3 + 4 +   1 + 2 + 3 + 4 +   1 + 2 + 3 + 4 +   1 + 2 + 3 + 4 + 

[Gaga Prechorus]
   Em7     D/F#  G                     C                 G       D
e|-----------------|-----------------|-----------0-----|-----------------|
B|-----3-----3---3-|-----------------|-----1-------1---|-3-------3-------|
G|-------0---2---0-|-----------------|-------0-------0-|-0-------2-------|
D|---2-------------|-----------------|---2-----2-------|---------0-------|
A|-----------------|-----------------|-3---------------|-----------------|
E|-0-------2-----3-|-----------------|-----------------|-3---------------|
   1 + 2 + 3 + 4 +   1 + 2 + 3 + 4 +   1 + 2 + 3 + 4 +   1 + 2 + 3 + 4 + 


[Verse 1]
   Em7         D/F#  G
   Tell me something girl...
C                          G    D
   Are you happy in this modern world?
Em7          D/F# G
   Or do you need more?
C                                       G   D
   Is there something else you’re searching for?
   Em7 D/F# G
   I’m fall-in'
C                          G      D           Em7 D/F# G
   In all the good times I find myself longin'    for  change
C                         G      D     Em7  D/F# G
   And in the bad times I feel myself

[Break]
Em7 D/F#  G
Em7 D/F#  G

[Verse 3]
   Em7         D/F#   G
   Tell me something boy...
C                          G         D
   Aren’t you tired trying fill that void
Em7          D/F# G
   Or do you need more?
C                           G      D
   Ain’t it hard keeping it so hardcore


[Gaga Prechorus]
   Em7 D/F# G
   I’m fall-ing
C                          G      D           Em7 D/F# G
   In all the good times I find myself longin'    for  change
C                         G      D   
   And in the bad times I feel myself


[Chorus]
Am                    D
I’m off the deep end, watch as I dive in
G           D       Em
I’ll never meet the ground
Am                         D
Crash through the surface, where they can’t hurt us
      G            D       Em
We’re far from the shallow now


[Post–Chorus]
Am                 D 
   In the shallow, shallow
G         D            Em
   In the shallow, shallow
Am                 D 
   In the shallow, shallow
         G            D       Em
   We’re far from the shallow now
Em

[Bridge]
Bm   D
Wooaaaah
   A     Em    Bm    D    A
Woaaaaaaaaaaaaaaaaaaaaaaahhhhh


[Chorus]
Am                    D
I’m off the deep end, watch as I dive in
G           D        Em
I’ll never meet the ground
Am                         D   
Crash through the surface, where they can’t hurt us
      G            D       Em
We’re far from the shallow now


[Post-Chorus]
Am                 D
   In the shallow, shallow
G         D           Em
   In the shallow, shallow
Am                 D
   In the shallow, shallow
         G            D       Em
   We’re far from the shallow now