3/10

DIFFICULTY

STANDARD TUNING

CAPO ON 1ST FRET

Guitar Chord & Songwriting Cheat Sheet

GUITARZERO2HERO FREEBIE:

CHORD & SONGWRITING CHEAT SHEET

MASTER OVER 200+ CHORDS & MORE - YOU'LL ALSO RECEIVE THE LATEST NEWS & UPDATES FROM GUITARZERO2HERO

CHORD SHAPES

Welcome to this This Feeling Guitar Tutorial by The Chainsmokers!
I’m really digging this track, I absolutely love Kelsea Ballerini’s voice is this song. It’s pretty much what you’d expect from a chainsmokers song, a catchy and upbeat track with some boppy dance breakdowns. In this lesson i’ll teach you the rhythm guitar as well as the lead guitar riff at the end of the song. I also have a guest vocalist singing on top for context, she’s a fellow you-tuber. Check out her youtube channel below 🙂

https://www.youtube.com/user/XxMissAmandaLeexX

Enjoy! Like this #ThisFeeling video by #TheChainsmokers and subscribe to the channel for more videos in the future!

-Dave Tran (Your online guitar teacher 😁)

------------------------------------------------
          RHYTHM - CAPO ON 1ST FRET
------------------------------------------------

[Intro]
Am G C/E F
Am G C F

[Verse 1: Kelsea Ballerini]
                 Am             G      C/E    F
I'll tell you a story before it tells itself
                     Am                  G           C      F
I'll lay out all my reasons, you'll say that I need help
                 Am                    G         C/E    F
We all got expectations, and sometimes they go wrong
                    Am            G            C    F
But no one listens to me, so I put it in this song


[Pre-C/Fhorus: Kelsea Ballerini]
               Am             G            C/E               F
They tell me think with my head, not that thing in my chest
                Am             G        C      F
They got their hands at my neck this time
                Am         G              C/E            F
But you're the one that I want, if that's really so wrong
                 Am               G            C      F
Then they don't know what this feeling is like


[Chorus: Kelsea Ballerini & Andrew Taggart]
          Am    G
And I say yeah-eah
     C/E       F
Yeah-eah-eah-eah
Am    F
Yeah-eah
     C        F
Yeah-eah-eah-eah

Am G C/E F
Am G C  F


[Verse 2: Andrew Taggart]
                  Am                  G            C/E  F
I'll tell them a story, they'll sit and nod their heads
                   Am              G             C        F
I tell you all my secrets, and you tell all your friends
                 Am              G               C/E             F
Hold on to your opinions, and stand by what you say (stand by what you say)
                      Am                G                C          F
In the end, it's my decision, so it's my fault when it ends


[Pre-Chorus: Kelsea Ballerini & Andrew Taggart]
               Am           G               C/E             F
They tell me think with my head, not that thing in my chest
                 Am         G         C     F
They got their hands at my neck this time
                 Am        G               C/E         F
But you're the one that I want, if that's really so wrong
                 Am            G           C     F
Then they don't know what this feeling is like


[Chorus]
Am G C/E F
Am G C F
Am G C/E F
Am G C F


[Verse 3: Kelsea Ballerini & Andrew Taggart]
                 Am             G      C/E    F
I'll tell you a story before it tells itself
                     Am                  G           C      F
I'll lay out all my reasons, you'll say that I need help
                 Am                    G         C/E    F
We all got expectations, and sometimes they go wrong
                    Am            G            C    F
But no one listens to me, so I put it in this song


[Pre-Chorus: Kelsea Ballerini & Andrew Taggart]
               Am           G               C/E             F
They tell me think with my head, not that thing in my chest
                 Am         G         C     F
They got their hands at my neck this time
                 Am        G               C/E         F
But you're the one that I want, if that's really so wrong
                 Am            G           C     F
Then they don't know what this feeling is like


[Bridge: Kelsea Ballerini & Andrew Taggart]
               Am G  C/E   F
My friends say no-o, no-o-o
                Am G C  F
Then they don't know
Am7 G  C/E  F
No-o, no-o-o
      Am7 G   C   F
Yeah, no-o, no-o-o


[Outro]
Am G C/E F
Am G C F
Am G C/E F
Am G C F

-------------------------------------------------
                 LEAD - NO CAPO
-------------------------------------------------
e|-------------------------|-------------------------|
B|-------------------14-16-|-16----14-16-16----14-16-|
G|-------------------------|-------------------------| 
D|-------------------------|-------------------------|
A|-------------------------|-------------------------| 
E|-------------------------|-------------------------| 
   1  +  2  +  3  +  4  +    1  +  2  +  3  +  4  +    

e|----13-------------------|----------------13-------| 
B|-16----16-14-------14-16-|-16----14----16----16-14-| 
G|-------------------------|-------------------------| 
D|-------------------------|-------------------------| 
A|-------------------------|-------------------------| 
E|-------------------------|-------------------------| 
   1  +  2  +  3  +  4  +    1  +  2  +  3  +  4  + 

e|----------------------17-|-17----13-------------17-|
B|-------------------14----|----------16-14----14----|
G|-------------------------|-------------------------|
D|-------------------------|-------------------------|
A|-------------------------|-------------------------|
E|-------------------------|-------------------------|
   1  +  2  +  3  +  4  +    1  +  2  +  3  +  4  +  

e|-17-13-------------------|----------------13-------| 
B|-------16-14-------14-16-|-16----14----16----16-14-| 
G|-------------------------|-------------------------| 
D|-------------------------|-------------------------| 
A|-------------------------|-------------------------| 
E|-------------------------|-------------------------| 
   1  +  2  +  3  +  4  +    1  +  2  +  3  +  4  +