4/10

DIFFICULTY

STANDARD TUNING

NO CAPO

Guitar Chord & Songwriting Cheat Sheet

GUITARZERO2HERO FREEBIE:

CHORD & SONGWRITING CHEAT SHEET

MASTER OVER 200+ CHORDS & MORE - YOU'LL ALSO RECEIVE THE LATEST NEWS & UPDATES FROM GUITARZERO2HERO

CHORD SHAPES

Welcome to this Love Someone Guitar Tutorial by Lukas Graham!
This song has a lovely fingerpicked riff running throughout, but for those beginners out there who just want an easy strummed version, I also teach that too! Best part about this song is that no capo is required yay! Hope you all have fun learning this one for your loved ones!

Enjoy! Like this #lovesomeone video by #lukasgraham and subscribe to the channel for more #guitartutorial videos in the future!

-Dave Tran (Your online guitar teacher ūüėĀ)

------------------------------------------------
        STRUMMED VERSION
------------------------------------------------

[Intro]
C Em Am F 

[Verse]
C                      Em
There are days
                 Am
I wake up and I pinch myself
                    F                    
You're with me, not someone else
C                              Em
And I am scared, yeah, I'm so scared
          Am    F  
That it's all a dream


[Pre-Chorus]
F                     G          Am      F
'Cause you still look perfect as days go by
                         Am   G  F
Even the worst ones, you make me smile
             G           Am   G  Em    F   Gadd11
I'd stop the world if it gave us time


[Chorus]
                F                G
'Cause when you love someone
    C             Am
You open up your heart
         F                G
When you love someone
         Am
You may grow
        F               G
If you love someone
            C             Am
And you're not afraid to lose them
                       F         G         Am
You'll probably never love someone like I do
                       F         G        Am   F     
You'll probably never love someone like I do   uhh  uhh


[Verse]
C                Em
When you say
                    Am
You love the way I make you feel
              F
Everything becomes so real
C                              Em
Don't be scared, no, don't be scared
               Am   F
'Cause you're all I need



[Pre-Chorus]
F                      G          Am   G  F
'Cause you still look perfect as days go by
          G              Am   G  F
Even the worst ones, you make me smile
              G           Am   G  Em  F    Gadd11
I'd stop the world if it gave us time


[Chorus]
                 F             G
'Cause when you love someone
    C             Am
You open up your heart
          F            G
When you love someone
         Am
You may grow
        F           G
If you love someone
            C             Am
And you're not afraid to lose them
                       F         G        Am
You'll probably never love someone like I do
                       F         G        Am   F    
You'll probably never love someone like I do   uhh  uhh


[Bridge]
Dm            G
All my life
                   C
I thought it'd be hard to find
                     Am
The one 'til I found you
               Dm      G
And I find it bittersweet
            Am                  Dm
'Cause you gave me something to lose


[Chorus]
              F              G
And when you love someone
     C            Am
You open up your heart
          F            G
When you love someone
         Am
You may grow
        F            G
If you love someone
            C             Am
And you're not afraid to lose them
                       F         G         Am
You'll probably never love someone like I do
                       F         G         Am
You'll probably never love someone like I do
                       F         G         C
You'll probably never love someone like I do
-------------------------------------------------
                  STUDIO VERSION
-------------------------------------------------
[Verse]
   C                                 Em
e|---------x---3-----------x-------|---------x---------------x-------|
B|-------5-x-----------5---x-------|---------x---8-----------x-------|
G|-----5---x---------------x-------|-------9-x-----------9---x-------|
D|---------x---------------x-------|-----9---x---------------x-------|
A|-3-------x---3-----------x-------|-7-------x---7-----------x-------|
E|---------x---------------x-------|---------x---------------x-------|
   1 e + a 2 e + a 3 e + a 4 e + a   1 e + a 2 e + a 3 e + a 4 e + a
   Am                                F
e|---------x---0-----------x-------|---------x---1-----------x-------|
B|-------1-x-----------1---x-------|---------x-----------1---x-------|
G|-----2---x---------------x-------|-------2-x---------------x-------|
D|---------x---------------x-------|-----3---x---------------x-------|
A|-0-------x---0-----------x-------|---------x---------------x-------|
E|---------x---------------x-------|-1-------x---1-----------x-------|
   1 e + a 2 e + a 3 e + a 4 e + a   1 e + a 2 e + a 3 e + a 4 e + a

[Pre Chorus]
   F                                 G           Am
e|---------x---1-----------x-------|---------x---------------x-------|
B|---------x-----------1---x-------|-------0-x---1-----------x-------|
G|-------2-x---------------x-------|-----0---x-----------2---x-------|
D|-----3---x---------------x-------|---------x---------------x-------|   x3
A|---------x---------------x-------|---------x---0-----------x-------|
E|-1-------x---1-----------x-------|-3-------x---------------x-------|
   1 e + a 2 e + a 3 e + a 4 e + a   1 e + a 2 e + a 3 e + a 4 e + a
   Em          F            Gadd11                     
e|---------x-----------------------|---------------------------------|
B|---------x---------------1-------|---------------------------------|
G|-0-------x---2-----------0-------|---------------------------------|
D|---------x-----------------------|---------------------------------|
A|---------x-----------------------|---------------------------------|
E|-0-------x---1-----------3-------|---------------------------------|
   1 e + a 2 e + a 3 e + a 4 e + a   1 e + a 2 e + a 3 e + a 4 e + a

[Chorus]
   F           G                     C           Am
e|---------x---------------x-------|-------0-x---------------x-------|   \
B|---------x---0-----------x-------|-----1---x---1-----------x-------|    \
G|-------2-x---------------x-------|---------x---------------x-------|     \
D|-----3---x---------------x-------|---------x---------------x-------|     |
A|---------x---------------x-------|-3-------x---0-----------x-------|     |
E|-1-------x---3-----------x-------|---------x---------------x-------|     |
   1 e + a 2 e + a 3 e + a 4 e + a   1 e + a 2 e + a 3 e + a 4 e + a       |   x2
   F           G                     Am                                    |
e|---------x---------------x-------|---------x---------------x-------|     |
B|---------x---0-----------x-------|-------1-x---1-----------x-------|     |
G|-------2-x---------------x-------|-----2---x---------------x-------|     |
D|-----3---x---------------x-------|---------x---------------x-------|    /
A|---------x---------------x-------|-0-------x---0-----------x-------|   /
E|-1-------x---3-----------x-------|---------x---------------x-------|  /
   1 e + a 2 e + a 3 e + a 4 e + a   1 e + a 2 e + a 3 e + a 4 e + a
   F           G                     Am          F
e|---------x---------------x-------|---------x---------------x-------|
B|---------x---0-----------x-------|-------1-x---------------x-------|
G|-------2-x---------------x-------|-----2---x---2-----------x-------|
D|-----3---x---------------x-------|---------x---------------x-------| 
A|---------x---------------x-------|-0-------x---------------x-------|
E|-1-------x---3-----------x-------|---------x---1-----------x-------|
   1 e + a 2 e + a 3 e + a 4 e + a   1 e + a 2 e + a 3 e + a 4 e +  

[Bridge]
   Dm                                G
e|-------1-x---1-----------x-------|---------x---------------x-------|
B|-----3---x---------------x-------|-------0-x---0-----------x-------|
G|---------x---------------x-------|-----0---x---------------x-------|
D|-0-------x---0-----------x-------|---------x---------------x-------|
A|---------x---------------x-------|---------x---------------x-------|
E|---------x---------------x-------|-3-------x---3-----------x-------|
   1 e + a 2 e + a 3 e + a 4 e + a   1 e + a 2 e + a 3 e + a 4 e + a
   C                                 Am
e|-------0-x---0-----------x-------|---------x---------------x-------|
B|-----1---x---------------x-------|-------1-x---1-----------x-------|
G|---------x---------------x-------|-----2---x---------------x-------|
D|---------x---------------x-------|---------x---------------x-------|
A|-3-------x---3-----------x-------|-0-------x---0-----------x-------|
E|---------x---------------x-------|---------x---------------x-------|
   1 e + a 2 e + a 3 e + a 4 e + a   1 e + a 2 e + a 3 e + a 4 e + a
   Dm                                G
e|-------1-x---1-----------x-------|---------x---------------x-------|
B|-----3---x---------------x-------|-------0-x---0-----------x-------|
G|---------x---------------x-------|-----0---x---------------x-------|
D|-0-------x---0-----------x-------|---------x---------------x-------|
A|---------x---------------x-------|---------x---------------x-------|
E|---------x---------------x-------|-3-------x---3-----------x-------|
   1 e + a 2 e + a 3 e + a 4 e + a   1 e + a 2 e + a 3 e + a 4 e + a
   Am                                Dm
e|-0-------------------------------|-1-------------------------------|
B|-1-------------------------------|-3-------------------------------|
G|-2-------------------------------|-2-------------------------------|
D|-2-------------------------------|-0-------------------------------|
A|-0-------------------------------|---------------------------------|
E|---------------------------------|---------------------------------|
   1 e + a 2 e + a 3 e + a 4 e + a   1 e + a 2 e + a 3 e + a 4 e + a

[Quiet Chorus]
   F           G                     C           Am
e|---------x---------------x-------|-------3-x---------------x-------|
B|-------1-x---3-----------x-------|---------x---5-----------x-------|
G|-----2---x---------------x-------|---------x---------------x-------|
D|-3-------x---5-----------x-------|---------x---7-----------x-------|  
A|---------x---------------x-------|-3-------x---------------x-------|
E|---------x---------------x-------|---------x---------------x-------|
   1 e + a 2 e + a 3 e + a 4 e + a   1 e + a 2 e + a 3 e + a 4 e + a
   F           G                     Am
e|---------x---------------x-------|---------x---------------x-------|
B|-------1-x---3-----------x-------|-------5-x---5-----------x-------|
G|-----2---x---------------x-------|-----5---x---------------x-------|
D|-3-------x---5-----------x-------|-7-------x---7-----------x-------|  
A|---------x---------------x-------|---------x---------------x-------|
E|---------x---------------x-------|---------x---------------x-------|
   1 e + a 2 e + a 3 e + a 4 e + a   1 e + a 2 e + a 3 e + a 4 e + a