ALL OF THE STARS – ED SHEERAN GUITAR LESSON

4.5/10

DIFFICULTY

STANDARD TUNING

CAPO ON 4TH

Guitar Chord & Songwriting Cheat Sheet

GUITARZERO2HERO FREEBIE:

CHORD & SONGWRITING CHEAT SHEET

MASTER OVER 200+ CHORDS & MORE - YOU'LL ALSO RECEIVE THE LATEST NEWS & UPDATES FROM GUITARZERO2HERO

CHORD SHAPES

Welcome to this All Of The stars Guitar Tutorial by Ed Sheeran!

I never really knew this song existed until I got a bunch of requests for it. It’s a song off the soundtrack for the movie, The Fault In Our Stars by John Green. This song is a brilliant ballad track and you’d expect no less from Ed Sheeran. In this video i’ll teach you 2 different ways of playing this song.

1. Studio version – Easy strummed chords
2. Live version – Fingerpicked the way Ed does it live

At the end of the video as always i’ll be doing a playthrough of both versions.

Enjoy! Like this #allofthestars video by #edsheeran and subscribe to the channel for more videos in the future!

-Dave Tran (Your online guitar teacher ūüėĀ)

------------------------------------------------
        STUDIO VERSION - CAPO ON 4TH FRET
------------------------------------------------

[VERSE I]

Cadd9                     G        Em7 D   Cadd9       
  It's just another night, and I'm staring at the Moon,
G                           D             
  I saw a shooting star and thought of you.
Cadd9              G       Em7 D  Cadd9         
   I sang a lullaby by the waterside and knew, 
G                     D          
   If you were here I'd sing to you.
Cadd9                      G       Em7 D   Cadd9         
   You're on the other side as the skyline splits in two,
G                  D          
   Miles away from seeing you.
Cadd9                     G      Em7  D   Cadd9     
   But I can see the stars from Amer - i - ca
G                   D
   I wonder do you see them too.

[CHORUS]

              G
So open your eyes and see,
               D
The way our horizons meet.
                Em7
And all of the lights will leave,
          Cadd9
Into the night with me.
                  G
And I know these scars will bleed,
                 D
But both of our hearts believe,
              Em7  Cadd9 G    D  
All of these stars will guide us home.

[BREAK]

G
[VERSE II]

Cadd9                   G       Em7   D  Cadd9  
   I can hear your heart on the ra - di - o    beats,
G                                       D            
   They're playing 'Chasing Cars' and I thought of us.
Cadd9              G         Em7 D Cadd9
   Back to the time you were lying next to me,
G                      D            
   I looked across and fell in love.
Cadd9                  G             Em7   D  Cadd9
    So I took your hand back through lamp lit streets and dew,
G                 D           
   Everything led back to you.
Cadd9                     G       Em7    D    Cadd9
   So can you see the stars over Am - ster - dam?
G                            D             
   Hear the song my heart is beating to.

[CHORUS]

              G
So open your eyes and see,
               D
The way our horizons meet.
                Em7
And all of the lights will leave,
          Cadd9
Into the night with me.
                  G
And I know these scars will bleed,
                 D
But both of our hearts believe,
              Em7  Cadd9 G    D  G
All of these stars will guide us home.

[BRIDGE]
 Cadd9 D    Em G
And,  oh,   I know,       
 Cadd9 D   G
And   oh,  I know,

[OUTRO]
Cadd9                G      Em7  D   Cadd9
   I can see the stars from Amer - i - ca
-------------------------------------------------
          LIVE VERSION - CAPO ON 2ND FRET
-------------------------------------------------
[Verse]
   E               B                 G#m     F#     E
e|---------------------------------|---------------------------------|
B|-----------0---------------0-----|---------------------------0-----|
G|-------4-------4-------4-------4-|-------4-------4-------4-------4-|
D|-----4---4---4-------4---4---4---|-----4-------4-------4---4---4---|
A|-----------------2---------------|---------------------------------|
E|-0-------------------------------|-4-------2-------0---------------|
   1 e + a 2 e + a 3 e + a 4 e + a   1 e + a 2 e + a 3 e + a 4 e + a
   B                                 F#     
e|---------------------------------|---------------------------------|
B|-----------0---------------0-----|-----------0---------------0-----|
G|-------4-------4-------4-------4-|-------3-------3-------3-------3-|
D|-----4---4---4-------4---4---4---|-----4---4---4-------4---4---4---|
A|-2---------------2---------------|---------------------------------|
E|---------------------------------|-2---------------2---------------|
   1 e + a 2 e + a 3 e + a 4 e + a   1 e + a 2 e + a 3 e + a 4 e + a

[Chorus]
   B                     F#                    G#m                   
e|-----------------|  e|-----------------|  e|-----------------|  
B|-----------0-----|  B|-----------0-----|  B|-----------0-----|  
G|-------4-------4-|  G|-------3-------3-|  G|-------4-------4-|  
D|-----4---4---4---|  D|-----4---4---4---|  D|-----4---4---4---|  
A|-2---------------|  A|-----------------|  A|-----------------|  
E|-----------------|  E|-2---------------|  E|-4---------------|  
          x4                    x4                    x4                    
   E                     F#
e|-----------------|  e|-----------------|
B|-----------0-----|  B|-----------0-----|
G|-------4-------4-|  G|-------3-------3-|
D|-----4---4---4---|  D|-----4---4---4---|
A|-----------------|  A|-----------------|
E|-0---------------|  E|-2---------------|
        x3                    x1
   B                     F#                   
e|-----------------|  e|-----------------| 
B|-----------0-----|  B|-----------0-----| 
G|-------4-------4-|  G|-------3-------3-| 
D|-----4---4---4---|  D|-----4---4---4---| 
A|-2---------------|  A|-----------------| 
E|-----------------|  E|-2---------------| 
         x4                     x4
   G#m             E                 B               F#     
e|---------------------------------|---------------------------------|
B|-----------0---------------0-----|-----------0---------------0-----|
G|-------4-------4-------4-------4-|-------4-------4-------3-------3-|
D|-----4---4---4-------4---4---4---|-----4---4---4-------4---4---4---|
A|---------------------------------|-2-------------------------------|
E|-4---------------0---------------|-----------------2---------------|
   1 e + a 2 e + a 3 e + a 4 e + a   1 e + a 2 e + a 3 e + a 4 e + a

[Break]
   B 
e|-----------------|-----------------| 
B|-----------0-----|-----------0-----| 
G|-------4-------4-|-------4-------4-| 
D|-----4---4---4---|-----4---4---4---| 
A|-2---------------|-2---------------| 
E|-----------------|-----------------| 

[Bridge]
   E                                 F#    
e|---------------------------------|---------------------------------|
B|-----------0---------------0-----|-----------0---------------0-----|
G|-------4-------4-------4-------4-|-------3-------3-------3-------3-|
D|-----4---4---4-------4---4---4---|-----4---4---4-------4---4---4---|
A|---------------------------------|---------------------------------|
E|-0---------------0---------------|-2---------------2---------------|
   1 e + a 2 e + a 3 e + a 4 e + a   1 e + a 2 e + a 3 e + a 4 e + a
   G#m                               B     
e|---------------------------------|---------------------------------|
B|-----------0---------------0-----|-----------0---------------0-----|
G|-------4-------4-------4-------4-|-------3-------3-------3-------3-|
D|-----4---4---4-------4---4---4---|-----4---4---4-------4---4---4---|
A|---------------------------------|-2---------------2---------------|
E|-4---------------4---------------|---------------------------------|
   1 e + a 2 e + a 3 e + a 4 e + a   1 e + a 2 e + a 3 e + a 4 e + a
   E                                 F#    
e|---------------------------------|---------------------------------|
B|-----------0---------------0-----|-----------0---------------0-----|
G|-------4-------4-------4-------4-|-------3-------3-------3-------3-|
D|-----4---4---4-------4---4---4---|-----4---4---4-------4---4---4---|
A|---------------------------------|---------------------------------|
E|-0---------------0---------------|-2---------------2---------------|
   1 e + a 2 e + a 3 e + a 4 e + a   1 e + a 2 e + a 3 e + a 4 e + a
   B     
e|---------------------------------|---------------------------------|
B|-----------0---------------0-----|-----------0---------------0-----|
G|-------4-------4-------4-------4-|-------4-------4-------4-------4-|
D|-----4---4---4-------4---4---4---|-----4---4---4-------4---4---4---|
A|-2---------------2---------------|-2---------------2---------------|
E|---------------------------------|---------------------------------|
   1 e + a 2 e + a 3 e + a 4 e + a   1 e + a 2 e + a 3 e + a 4 e + a

[Outro]
   E               B                 G#m     F#     E
e|---------------------------------|---------------------------------|
B|-----------0---------------0-----|---------------------------------|
G|-------4-------4-------4-------4-|-------4-------4-----------------|
D|-----4---4---4-------4---4---4---|-----4-------4-------------------|
A|-----------------2---------------|---------------------------------|
E|-0-------------------------------|-4-------2-------0---------------|
   1 e + a 2 e + a 3 e + a 4 e + a   1 e + a 2 e + a 3 e + a 4 e + a
2018-09-13T07:31:30+00:00