OTHERSIDE – RED HOT CHILI PEPPERS GUITAR LESSON

3/10

DIFFICULTY

STANDARD TUNING

NO CAPO

Guitar Chord & Songwriting Cheat Sheet

GUITARZERO2HERO FREEBIE:

CHORD & SONGWRITING CHEAT SHEET

MASTER OVER 200+ CHORDS & MORE - YOU'LL ALSO RECEIVE THE LATEST NEWS & UPDATES FROM GUITARZERO2HERO

CHORD SHAPES

Welcome to this Otherside Guitar Tutorial by The Red Hot Chili Peppers!

This is an awesome track off probably their best album in my opinion ‘Californication’. The track itself has some really great guitar riffs that are super easy to play so this is a great song for beginners to learn on the electric guitar. as always at the end of the video i’ll have a full playthrough so you can jam along and practice to your hearts content. We want chili willy!

Enjoy! Like this #otherside video by #redhotchilipeppers and subscribe to the channel for more videos in the future!

-Dave Tran (Your online guitar teacher ūüėĀ)

[Intro]
e|-----------------|-----------------|-----------------|-----------------|
B|-----------------|-----------------|-----------------|-----------------|
G|-----------------|-----------------|-----------------|-----------------|
D|-----------------|-7-----7---9-7-5-|-----------------|-----------------| 
A|-7-----7-----7---|-----------------|-7---------------|-5-----5-----5---|
E|-----------------|-----------------|-----------------|-----------------|
   1 + 2 + 3 + 4 +   1 + 2 + 3 + 4 +   1 + 2 + 3 + 4 +   1 + 2 + 3 + 4 + 

[Chorus 1]
e|-----------------|-----------------|-----------------|-----------------|
B|-----------------|-----------------|-----------------|-----------------|
G|-----------------|-----------------|-----------------|-----------------|
D|-----------------|-7-----7---9-7-5-|-----------------|-----------------| x2
A|-7-----7-----7---|-----------------|-7-----7-----7(7)|-5-----5-----5---|
E|-----------------|-----------------|-----------------|-----------------|
   1 + 2 + 3 + 4 +   1 + 2 + 3 + 4 +   1 + 2 + 3 + 4 +   1 + 2 + 3 + 4 + 

e|-----------------|-----------------|-----------------|-----------------|
B|-----------------|-----------------|-----------------|-----------------|
G|-----------------|-----------------|-----------------|-----------------|
D|-----------------|-7-----7-----7---|-14----14----14--|-9---9---9---9---| 
A|-7-----7-----7---|-----------------|-----------------|-----------------|
E|-----------------|-----------------|-----------------|-----------------|
   1 + 2 + 3 + 4 +   1 + 2 + 3 + 4 +   1 + 2 + 3 + 4 +   1 + 2 + 3 + 4 + 


[Verse]
e|-------8---------|-----------15----|-------8---------|---------15------|
B|-----------------|-------12--------|-----------------|-------12--------|
G|-----------------|-----------------|-----------------|-----------------|
D|-----------------|-----------------|-----------------|-----------------| 
A|-----------------|-----------------|-----------------|-----------------|
E|-5-----------5---|-5/12--------12\5|-5-----------5---|-5/12--------12/5|
   1 + 2 + 3 + 4 +   1 + 2 + 3 + 4 +   1 + 2 + 3 + 4 +   1 + 2 + 3 + 4 + 

e|-------8---------|-----------15----|
B|-----------------|-------12--------|
G|-----------------|-----------------| 
D|-----------------|-----------------| 
A|-----------------|-----------------|
E|-5-----------5---|-5/12--------12\5|
   1 + 2 + 3 + 4 +   1 + 2 + 3 + 4 + 

[Break]
e|-3---------------|-5---------------|-----------------|
B|-3---------------|-5---------------|-----------------|
G|-4---------------|-6---------------|-----------------|
D|-5---------------|-7---------------|-----------------|
A|-5---------------|-7---------------|-----------------|
E|-3---------------|-5---------------|-----------------|
   1 + 2 + 3 + 4 +   1 + 2 + 3 + 4 +   1 + 2 + 3 + 4 +

[Prechorus]
e|-3---------------|-5---------------|-3---------------|-5---------------|
B|-3---------------|-5---------------|-3---------------|-5---------------|
G|-4---------------|-6---------------|-4---------------|-6---------------| 
D|-5---------------|-7---------------|-5---------------|-7---------------|
A|-5---------------|-7---------------|-5---------------|-7---------------|
E|-3---------------|-5---------------|-3---------------|-5---------------|
   1 + 2 + 3 + 4 +   1 + 2 + 3 + 4 +   1 + 2 + 3 + 4 +   1 + 2 + 3 + 4 + 

e|-3---------------|-----------------|-3---------------|-----------------|
B|-3---------------|-----------------|-3---------------|-----------------|
G|-4---------------|-----------------|-4---------------|-----------------| 
D|-5---------------|-----------------|-5---------------|-----------------|
A|-5---------------|-----------------|-5---------------|-----------------|
E|-3---------------|-----------------|-3---------------|-----------------|
   1 + 2 + 3 + 4 +   1 + 2 + 3 + 4 +   1 + 2 + 3 + 4 +   1 + 2 + 3 + 4 + 

[Chorus 1/3]
e|-----------------|-----------------|-----------------|-----------------|
B|-----------------|-----------------|-----------------|-----------------|
G|-----------------|-----------------|-----------------|-----------------|
D|-----------------|-7-----7---9-7-5-|-----------------|-----------------| x2
A|-7-----7-----7---|-----------------|-7-----7-----7(7)|-5-----5-----5---|
E|-----------------|-----------------|-----------------|-----------------|
   1 + 2 + 3 + 4 +   1 + 2 + 3 + 4 +   1 + 2 + 3 + 4 +   1 + 2 + 3 + 4 + 

e|-----------------|-----------------|-----------------|-----------------|
B|-----------------|-----------------|-----------------|-----------------|
G|-----------------|-----------------|-----------------|-----------------|
D|-----------------|-7-----7-----7---|-14----14----14--|-17--17--17--17--| 
A|-7-----7-----7---|-----------------|-----------------|-----------------|
E|-----------------|-----------------|-----------------|-----------------|
   1 + 2 + 3 + 4 +   1 + 2 + 3 + 4 +   1 + 2 + 3 + 4 +   1 + 2 + 3 + 4 + 

[Bridge]
e|-----0-----0-----|-0---------------|-----0-----0-----|-0---------------|
B|-----0-----0-----|-0---------------|-----12----12----|-12--------------|
G|-----------------|-----------------|-----------------|-----------------|
D|-----------------|-----------------|-----------------|-----------------|
A|-----------------|-----------------|-----------------|-----------------|
E|-----------------|-----------------|-----------------|-----------------|
   1 + 2 + 3 + 4 +   1 + 2 + 3 + 4 +   1 + 2 + 3 + 4 +   1 + 2 + 3 + 4 + 

e|-----12----12----|-12--------------|-----0-----0-----|-0---------------|
B|-----0-----0-----|-0---------------|-----12----12----|-12--------------|
G|-----------------|-----------------|-----------------|-----------------|
D|-----------------|-----------------|-----------------|-----------------|   x3
A|-----------------|-----------------|-----------------|-----------------|
E|-----------------|-----------------|-----------------|-----------------|
   1 + 2 + 3 + 4 +   1 + 2 + 3 + 4 +   1 + 2 + 3 + 4 +   1 + 2 + 3 + 4 + 

[Solo]
e|-0-----0---0--0--0-|-0-----0---0--0--0-|-0--0--0--0---0--0--0-|-0--0--0--0--0--0--0--0-|
B|-10----10--10-10-10|-17----17--17-17-17|-20-17-17-17--17-17-17|-20-17-17-20-17-17-20-17|
G|-------------------|-------------------|----------------------|------------------------|
D|-------------------|-------------------|----------------------|------------------------|
A|-------------------|-------------------|----------------------|------------------------|
E|-------------------|-------------------|----------------------|------------------------|
   1 + 2 + 3 +  4  +   1 + 2 + 3 +  4  +   1  +  2  + 3 +  4  +   1  +  2  +  3  +  4  + 

[Final Chorus]
Am G C G till end
[Verses]

Am                            Em
I heard your voice through a photograph
Am                         Em
I thought it up it brought up the past
Am                     Em
Once you know you can never go back
              G                A
I've got to take it on the otherside

Am                      Em
Centuries are what it meant to me
Am                   Em
A cemetery where I marry the sea
Am                            Em
Stranger things could never change my mind
             G                A
I've got to take it on the otherside
 G                 A
Take it on the otherside
 G
Take it on
 A
Take it on

Am            F            C
How long how long will I slide
G           Am..F     C
Separate my side I don't
   G                Am..F
I don't believe it's bad
 C
Slit my throat
      G
It's all I ever

Am                   Em
Pour my life into a paper cup
Am                           Em
The ashtray's full and I'm spillin' my guts
Am                       Em
She wants to know am I still a slut
             G                 A
I've got to take it on the otherside

 Am                       Em
Scarlet starlet and she's in my bed
 Am                 Em
A candidate for my soul mate bled
Am                    Em
Push the trigger and pull the thread
              G                A
I've got to take it on the otherside
  G               A
Take it on the otherside
 G
Take it on
 G
Take it on

 Am           F           C
How long how long will I slide
  G        Am..F     C
Separate my side I don't
   G                 Am..F
I don't believe it's bad
 C
Slit my throat
      G
It's all I ever

Em
Turn me on take me for a hard ride
C
Burn me out leave me on the otherside
Em
I yell and tell it that
It's not my friend
           C
I tear it down I tear it down
And then it's born again

Am            F            C
How long how long will I slide
G           Am..F     C
Separate my side I don't
   G                Am..F
I don't believe it's bad
 C
Slit my throat
      G
It's all I ever
2018-09-06T06:22:46+00:00