4/10

DIFFICULTY

STANDARD TUNING

CAPO ON 4TH

Guitar Chord & Songwriting Cheat Sheet

GUITARZERO2HERO FREEBIE:

CHORD & SONGWRITING CHEAT SHEET

MASTER OVER 200+ CHORDS & MORE - YOU'LL ALSO RECEIVE THE LATEST NEWS & UPDATES FROM GUITARZERO2HERO

CHORD SHAPES

Welcome to this Be Alright Guitar Tutorial by Dean Lewis! Dean Lewis is an up and coming Australian artist so some of you may not have heard of him but his new single “Be alright” is amazing and doing really well in Australia. The song has an awesome fingerpicking riff that’s simple enough for most beginners to play! The song itself is about a bad breakup so will really hit home for a lot of people. In the video I will teach you 2 ways of playing the song.

  1. Studio version – with fingerpicking
  2. Easy Strum Version – great for those who just want to play and sing

Like this #bealright video by #deanlewis and subscribe to the channel for more #guitartutorial videos in the future!

-Dave Tran (Your online guitar teacher 😁)

---------------------------------------------
             CAPO ON 4TH FRET
---------------------------------------------

[Verse 1]
Em                                      C
   I look up from the ground to see your sad and teary eyes
            G                              D/F#
   You look away from me and I see there’s something you're trying to hide
       Em                             C
  And I, reach for your hand but it's cold, you pull away again
         G                     Bm
  And I, wonder, what’s on your mind-ind-ind


[Pre-chorus]
C                            Em
  And then you say to me “you made a dumb mistake”
D                              D
 You start to tremble and your voice begins to break
            C                                     Em
You say the cigarettes on the counter weren’t your friends, they were my mates
      D                                D
And I feel the colour draining from my face
N.C.
And my friends said…

   C                 Em                D                 D
E|-----------------|-----------------|-----------------|-----------------|
B|---5-----5-----5-|---8-----8-----8-|---7-----7-----7-|---7-----7-----7-|
G|-----0-----0-----|-----0-----0-----|-----0-----0-----|-----0-----0-----|
D|-----------------|-----------------|-----------------|-----------------|
A|-3-----3-----3---|-7-----7-----7---|-5-----5-----5---|-5-----5-----5---|
E|-----------------|-----------------|-----------------|-----------------|

[Chorus]
Em                              C
   I know you love her but it’s over mate
G                            D/F#
   It doesn’t matter, put the phone away
Em                    C
   It’s never easy to walk away
               G       D/F#
   But let her go oh oh oh
   It’ll be alright

   Em                C                 G                 D
E|-----------------|-----------------|-----------------|-----------------|
B|---8-----8-----8-|---5-----5-----5-|---3-----3-----3-|---7-----7-----7-|
G|-----0-----0-----|-----0-----0-----|-----0-----0-----|-----0-----0-----|
D|-----------------|-----------------|-----------------|-----------------|
A|-7-----7-----7---|-3-----3-----3---|-----------------|-5-----5-----5---|
E|-----------------|-----------------|-3-----3-----3---|-----------------|
   Em                C                 G                 D
E|-----------------|-----------------|-----------------|-----------------|
B|---8-----8-----8-|---5-----3-----3-|---0-----0-----0-|---7-----7-----7-|
G|-----0-----0-----|-----0-----0-----|-----0-----0-----|-----0-----0-----|
D|-----------------|-----------------|-----------------|-----------------|
A|-7-----7-----7---|-3-----3-----3---|-----------------|-5-----5-----5---|
E|-----------------|-----------------|-3-----3-----3---|-----------------|

[Verse 2]
Em                                    C
   So I asked to look back at all the messages you’d sent
         G                              D/F#
   And I know it wasn’t right but it was fucking with my head
      Em                           C
   And everything deleted like the past year was gone
       G                                Bm
   And when I touched your face I could tell you're moving on

   Em                C                 G                 Bm
E|-----------------|-----------------|-----------------|-----------------|
B|---8-----8-----8-|---5-----5-----5-|---3-----3-----3-|---3-----3-----3-|
G|-----0-----0-----|-----0-----0-----|-----0-----0-----|-----0-----0-----|
D|-----------------|-----------------|-----------------|-----------------|
A|-7-----7-----7---|-3-----3-----3---|-----------------|-2-----2-----2---|
E|-----------------|-----------------|-3-----3-----3---|-----------------|

[Pre-chorus]
C                               Em
  But it’s not the fact that you kissed him yesterday
         D                           D
It’s the feeling of betrayal, that I just can't seem to shake
    C                              Em
And everything I know tells me that I should walk away
      D            D
But I just want to stay…
N.C.
And my friends said…

[Chorus]
Em                              C
   I know you love her but it’s over mate
G                            D/F#
   It doesn’t matter, put the phone away
Em                    C
   It’s never easy to walk away
               G       D/F#
   But let her go oh oh oh
N.C.
   It’ll be okay

Em                      C
  It's gonna hurt for a bit of time
G                         D/F#
  So, bottoms up, let’s forget tonight
Em                              C
   You’ll find another and you’ll be just fine
        G        D
Let her go oh oh oh


[Bridge]
    Em         C
But nothing heals
    G         D
The past like time
   Em          C
And they can't steal
    G                   D
The love you’re born to find
    Em         C
But nothing heals
    G         D
The past like time
   Em          C
And they can't steal
    G                   D
The love you’re born to find


[Chorus]
Em                              C
   I know you love her but it’s over mate
G                            D/F#
   It doesn’t matter, put the phone away
Em                    C
   It’s never easy to walk away
               G       D/F#
   But let her go oh oh oh
N.C.
   It’ll be okay

Em                      C
  It's gonna hurt for a bit of time
G                         D/F#
  So, bottoms up, let’s forget tonight
Em                              C
   You’ll find another and you’ll be just fine
        G        D
Let her go oh oh oh


[Outro]
         Em         C
It’ll be alright
         G          D
It’ll be alright
         Em         C
It’ll be alright
         G          D
It’ll be alright
         Em
It’ll be alright