3/10

DIFFICULTY

STANDARD TUNING

CAPO ON 1ST

Guitar Chord & Songwriting Cheat Sheet

GUITARZERO2HERO FREEBIE:

CHORD & SONGWRITING CHEAT SHEET

MASTER OVER 200+ CHORDS & MORE - YOU'LL ALSO RECEIVE THE LATEST NEWS & UPDATES FROM GUITARZERO2HERO

CHORD SHAPES

Welcome to this Big Jet Plane Guitar Tutorial by Angus & Julia Stone! This is a indie folk hit and was the song that really big Angus & Julia on the map worldwide. The great thing about this song is its simplicity and laid back nature. This is a super easy song to play and requires a capo on 1st fret and one strumming pattern throughout most of the song so it’s great for beginners. I’ll also teach you how to play the lead lines in the song.

Like this #bigjetplane video by #angus&juliastone and subscribe to the channel for more videos in the future!

-Dave Tran (Your online guitar teacher ūüėĀ)

---------------------------------------------
        CAPO ON 1ST FRET
---------------------------------------------

[Intro]
C Am Em Em
C Am Em Em

e|--------------------|--------------------|--------------------|---------------------|
B|-5/8-5-8------------|-5/8-5-8------------|-5/8-5-8------------|-5/8-5-8-------------|
G|---------4----5-----|---------7----5-----|---------4----5-----|---------7----5--4/5-|
D|--------------------|--------------------|--------------------|---------------------|
A|--------------------|--------------------|--------------------|---------------------|
E|--------------------|--------------------|--------------------|---------------------|

[Verse]
          C            Am                   Em
 She said: hello mister, pleased to meet ya
C                Am                 Em
 I wanna hold her, I wanna kiss her
C                      Am                       Em
 She smelled of daisies, she smelled of daisies
C                  Am                   Em G
 She drive me crazy, she drive me crazy

[Chorus]
C                     Am                Em
 Gonna take her for a ride on a big jet plane
C                     Am                Em    G
 Gonna take her for a ride on a big jet plane
      C  Am     Em  Em
 Yeah hey, yeah hey

e|--------------------|---------------------|
B|-5/8-5-8------------|-5/8-5-8-------------|
G|---------4----5-----|---------7----5--4/5-|
D|--------------------|---------------------|
A|--------------------|---------------------|
E|--------------------|---------------------|

[Verse]
C           Am              Em 
 Be my lover, my lady river
C                 Am                Em G
 But can I take ya, take ya higher?

[Chorus]
C                     Am                Em
 Gonna take her for a ride on a big jet plane
C                     Am                Em    G
 Gonna take her for a ride on a big jet plane
C                     Am                Em
 Gonna take her for a ride on a big jet plane
C                     Am                Em    G
 Gonna take her for a ride on a big jet plane
      C  Am     Em  Em
 Yeah hey, yeah hey
      C  Am     Em  Em
 Yeah hey, yeah hey

e|--------------------|--------------------|--------------------|---------------------|
B|-5/8-5-8------------|-5/8-5-8------------|-5/8-5-8------------|-5/8-5-8-------------|
G|---------4----5-----|---------7----5-----|---------4----5-----|---------7----5------|
D|--------------------|--------------------|--------------------|---------------------|
A|--------------------|--------------------|--------------------|---------------------|
E|--------------------|--------------------|--------------------|---------------------|

[Bridge]
F             G6                    Am
 Gonna hold ya, gonna kiss ya in my arms
F             G6          Am
 Gonna take ya, away from harm
F             G6                    Am
 Gonna hold ya, gonna kiss ya in my arms
F             G6          Am
 Gonna take ya, away from harm

[Chorus]
C                     Am                Em
 Gonna take her for a ride on a big jet plane
C                     Am                Em    G
 Gonna take her for a ride on a big jet plane
C                     Am                Em
 Gonna take her for a ride on a big jet plane
C                     Am                Em    G
 Gonna take her for a ride on a big jet plane
      C  Am     Em
 Yeah hey, yeah hey
      C  Am     Em
 Yeah hey, yeah hey
      C
 Yeah hey