4/10

DIFFICULTY

STANDARD TUNING

CAPO ON 3RD FRET

Guitar Chord & Songwriting Cheat Sheet

GUITARZERO2HERO FREEBIE:

CHORD & SONGWRITING CHEAT SHEET

MASTER OVER 200+ CHORDS & MORE - YOU'LL ALSO RECEIVE THE LATEST NEWS & UPDATES FROM GUITARZERO2HERO

CHORD SHAPES

Welcome to this Dirty Paws Guitar Tutorial by Of Monsters & Men!
There’s a really cool fingerpicked acoustic guitar riff in this song that’s played through all the verses. The rest of the song is simple chords shapes strummed with a basic Down strumming pattern. The only tricky part is the timing for the break sections but if you follow along with the annotations then you’ll be sure to get it. This is one of my favourite folk bands from Iceland (which is one of my favourite countries) – it’s a highly enjoyable riff to play so I’d suggest it to any beginner guitarist.

Enjoy! Like this #dirtypaws video by #ofmonstersandmen and subscribe to the channel for more videos in the future!

-Dave Tran (Your online guitar teacher 😁)

----------------------------------------------------
                   CAPO ON 3RD FRET
----------------------------------------------------

[Main Riff]
e|-----------------|------------------|-----------------|------------------|
B|-----------------|------------------|-----------------|--------1-------1-|
G|-------2-------0-|--------0-------0-|-------0-------0-|---0h2------2-----|
D|---2-------2-----|---0h2------2-----|---2-------2-----|-3----3---3---3---|
A|-0---0---0---0---|-3----3---3---3---|-3---3---3---3---|------------------|
E|-----------------|------------------|-----------------|------------------|

[Instrumental]
Am C C Fmaj7

[Break]
Am  G/B C
C   F   Am      G

[Short Break]
Am  G/B