4/10

DIFFICULTY

STANDARD TUNING

NO CAPO

Guitar Chord & Songwriting Cheat Sheet

GUITARZERO2HERO FREEBIE:

CHORD & SONGWRITING CHEAT SHEET

MASTER OVER 200+ CHORDS & MORE - YOU'LL ALSO RECEIVE THE LATEST NEWS & UPDATES FROM GUITARZERO2HERO

CHORD SHAPES

Welcome to this Girls Like You Guitar Tutorial by Maroon 5!
There’s a really cool acoustic guitar riff in this song that’s basically repeated throughout. In this video i’ll break it down step by step but will also teach you some easy chords you can use if you just want to strum along.

Enjoy! Like this #girlslikeyou video by #maroon5 and subscribe to the channel for more videos in the future!

-Dave Tran (Your online guitar teacher ūüėĀ)

[Intro]
e|---------------------------------|---------------------------------|
B|---------------------------------|---------------------------------|
G|---------------------------------|---------------------------------|
D|-----5-5-5-5-5-5-5---3-3---2-2---|-----5-5-5-5-5-5-5---5-7---2-2---|
A|-3-------------------------------|-3-------------------------------|
E|---------------------------------|---------------------------------|
   D   D U D U D U D   D U   U D     D   D U D U D U D   D U   U D
e|---------------------------------|---------------------------------|
B|---------------------------------|---------------------------------|
G|---------------------------------|---------------------------------|
D|-----5-5-5-5-5-5-5---3-3---2-2---|-0---0-2---0-0---0---0-2---0-0---|
A|-3-------------------------------|---------------------------------|
E|---------------------------------|---------------------------------|
   D   D U D U D U D   D U   U D     D   D U   U D   D   D U   U D

[Main Riff]
e|---------------------------------|---------------------------------|
B|---------------------------------|---------------------------------|
G|---------------------------------|---------------------------------|
D|-----5-5-5-5-5-5-5---3-3---2-2---|-----5-5-5-5-5-5-5---5-7---2-2---|
A|-3-------------------------------|---------------------------------|
E|---------------------------------|-3-------------------------------|
   D   D U D U D U D   D U   U D     D   D U D U D U D   D U   U D
e|---------------------------------|---------------------------------|
B|---------------------------------|---------------------------------|
G|---------------------------------|---------------------------------|
D|-----5-5-5-5-5-5-5---3-3---2-2---|-0---0-2---0-0---0---0-2---0-0---|
A|-0-------------------------------|---------------------------------|
E|---------------------------------|---------------------------------|
   D   D U D U D U D   D U   U D     D   D U   U D   D   D U   U D

[Verse 1]
       C                 G              Am  F
Spent 24 hours, I need more hours with you
                C              G     Am F
You spent the weekend getting even, ooh
               C                  G                  Am  F
We spent the late nights making things right between us

[Pre-Chorus]
             C
But now it's all good, babe
           G
Roll that back wood, babe
          Am       F
And play me close

[Chorus]
         C                              G
'Cause girls like you run 'round with guys like me
                   Am
'Til sun down when I come through
         F
I need a girl like you, yeah yeah
          C                            G
Girls like you love fun, and yeah, me too
                 Am
What I want when I come through
          F
I need a girl like you, yeah yeah

[Post-Chorus]
C                G
Yeah yeah yeah, yeah yeah yeah
Am       F
I need a girl like you, yeah yeah
C                G
Yeah yeah yeah, yeah yeah yeah
Am                 F
I need a girl like you

[Verse 2]
         C                 G              Am  F
I spent last night on the last flight to you
              C                 G      Am  F
Took a whole day up tryna get way up, ooh
                  C                 G              Am     F
We spent the daylight tryna make things right between us

[Pre-Chorus]
             C
But now it's all good, babe
           G
Roll that back wood, babe
          Am       F
And play me close

[Chorus]
         C                              G
'Cause girls like you run 'round with guys like me
                   Am
'Til sun down when I come through
         F
I need a girl like you, yeah yeah
          C                            G
Girls like you love fun, and yeah, me too
                 Am
What I want when I come through
          F
I need a girl like you, yeah yeah

[Post-Chorus]
C                G
Yeah yeah yeah, yeah yeah yeah
Am       F
I need a girl like you, yeah yeah
C                G
Yeah yeah yeah, yeah yeah yeah
Am                 F
I need a girl like you

[Bridge]
C
Maybe it's 6:45
G
Maybe I'm barely alive
Am                                   F
Maybe you've taken my shit for the last time
C
Maybe I know that I'm drunk
G
Maybe I know you're the one
Am                                   F
Maybe you're thinking it's better if you drive

[Chorus]
        C                               G
'Cause girls like you run 'round with guys like me
                   Am              F
'Til sun down when I come through
I need a girl like you, yeah
        C                               G
'Cause girls like you run 'round with guys like me
                   Am              F
'Til sun down when I come through
I need a girl like you, yeah
C                             G
Girls like you love fun, and yeah, me too
                 Am
What I want when I come through
           F
I need a girl like you, yeah yeah

[Post-Chorus]
C                G
Yeah yeah yeah, yeah yeah yeah
Am       F
I need a girl like you, yeah yeah
C                G
Yeah yeah yeah, yeah yeah yeah
Am                 F
I need a girl like you

[Outro]
C G Am F