3.5/10

DIFFICULTY

STANDARD TUNING

CAPO ON 1ST

Guitar Chord & Songwriting Cheat Sheet

GUITARZERO2HERO FREEBIE:

CHORD & SONGWRITING CHEAT SHEET

MASTER OVER 200+ CHORDS & MORE - YOU'LL ALSO RECEIVE THE LATEST NEWS & UPDATES FROM GUITARZERO2HERO

CHORD SHAPES

Welcome to this Fallin’ All In You Guitar Tutorial by Shawn Mendes!
This is perhaps my favourite song off his new self titled record, and surprise surprise, it turns out Ed Sheeran was a co-writer of this song! This is a super simple song to play and has an easy fingerpicking pattern to learn. In the video i’ll also teach you a simple strumming pattern you can use if you just want to strum along.

Enjoy! Like this #fallinallinyou video by #shawnmendes and subscribe to the channel for more videos in the future!

-Dave Tran (Your online guitar teacher ūüėĀ)

---------------------------------------------
          MAIN GUITAR CAPO ON 1ST FRET
---------------------------------------------

[Intro]
  G                 G               
e|-----x-------x---|-----x-------x---|
B|-----x-------x---|-----x-------x---|
G|-4---x-4-----x---|-4---x-4-----x---|
D|-----x-------x---|-----x-------x---|
A|-----x-------x---|-----x-------x---|
E|-3---x-3-----x---|-3---x-3-----x---|
   1 + 2 + 3 + 4 +   1 + 2 + 3 + 4 +   

[Verse 1/Chorus]
   G                 G                 Em               
E|-----x-------x---|-----x-------x---|-----x-------x---|   \
B|-----x-------x---|-----x-------x---|-----x-------x---|    \
G|-4---x-4-----x---|-4---x-4-----x---|-0---x-0-----x---|    |
D|-----x-------x---|-----x-------x---|-----x-------x---|    |
A|-----x-------x---|-----x-------x---|-----x-------x---|    |
E|-3---x-3-----x---|-3---x-3-----x---|-0---x-0-----x---|    |
   1 + 2 + 3 + 4 +   1 + 2 + 3 + 4 +   1 + 2 + 3 + 4 +      |
                                                            |    x2
   Em                C                 D                    |
E|-----x-------x---|-----x-------x---|-----x-------x---|    |
B|-----x-------x---|-5---x-5-----x---|-7---x-7-----x---|    |
G|-0---x-0-----x---|-----x-------x---|-----x-------x---|    |
D|-----x-------x---|-----x-------x---|-----x-------x---|    |
A|-----x-------x---|-3---x-3-----x---|-5---x-5-----x---|    /
E|-0---x-0-----x---|-----x-------x---|-----x-------x---|   /
    1 + 2 + 3 + 4 +   1 + 2 + 3 + 4 +   1 + 2 + 3 + 4 +
   G                 G
E|-----x-------x---|-----x-------x---|
B|-----x-------x---|-----x-------x---|
G|-4---x-4-----x---|-4---x-4-----x---|
D|-----x-------x---|-----x-------x---|
A|-----x-------x---|-----x-------x---|
E|-3---x-3-----x---|-3---x-3-----x---|
   1 + 2 + 3 + 4 +   1 + 2 + 3 + 4 +   

[Prechorus]
  Em                D                 G                 D
E|-----x-------x---|-----x-------x---|-----x-------x---|-----x-------x---|
B|-----x-------x---|-5---x-5-----x---|-----x-------x---|-7---x-7-----x---|
G|-0---x-0-----x---|-----x-------x---|-4---x-4-----x---|-----x-------x---|
D|-----x-------x---|-----x-------x---|-----x-------x---|-----x-------x---|
A|-----x-------x---|-3---x-3-----x---|-----x-------x---|-5---x-5-----x---|
E|-0---x-0-----x---|-----x-------x---|-3---x-3-----x---|-----x-------x---|
   1 + 2 + 3 + 4 +   1 + 2 + 3 + 4 +   1 + 2 + 3 + 4 +   1 + 2 + 3 + 4 +


[Verse 2]
   G                 G                 Em               
E|-----x-------x---|-----x-------x---|-----x-------x---|   
B|-----x-------x---|-----x-------x---|-----x-------x---|    
G|-4---x-4-----x---|-4---x-4-----x---|-0---x-0-----x---|    
D|-----x-------x---|-----x-------x---|-----x-------x---|    
A|-----x-------x---|-----x-------x---|-----x-------x---|   
E|-3---x-3-----x---|-3---x-3-----x---|-0---x-0-----x---|    
   1 + 2 + 3 + 4 +   1 + 2 + 3 + 4 +   1 + 2 + 3 + 4 +      
                                                           
   Em                C                 D                    
E|-----x-------x---|-----x-------x---|-----x-------x---|    
B|-----x-------x---|-5---x-5-----x---|-7---x-7-----x---|    
G|-0---x-0-----x---|-----x-------x---|-----x-------x---|    
D|-----x-------x---|-----x-------x---|-----x-------x---|    
A|-----x-------x---|-3---x-3-----x---|-5---x-5-----x---|    
E|-0---x-0-----x---|-----x-------x---|-----x-------x---|   
    1 + 2 + 3 + 4 +   1 + 2 + 3 + 4 +   1 + 2 + 3 + 4 +
   G                 G
E|-----x-------x---|-----x-------x---|
B|-----x-------x---|-----x-------x---|
G|-4---x-4-----x---|-4---x-4-----x---|
D|-----x-------x---|-----x-------x---|
A|-----x-------x---|-----x-------x---|
E|-3---x-3-----x---|-3---x-3-----x---|
   1 + 2 + 3 + 4 +   1 + 2 + 3 + 4 +   
---------------------------------------------
          GUITAR 2 - CAPO ON 1ST FRET
---------------------------------------------

[Verse]
E|-----------------|-----------------|-----------------|
B|-----------------|-----------------|-----------------|
G|-----2-----4-----|-----2-----4-----|-----------------|
D|---0-----0-------|---0-----0-------|-----4-----5-----|
A|-----------------|-----------------|---2-----2-------|
E|-3-----3---------|-3-----3---------|-0-----0---------|
   1 + 2 + 3 + 4 +   1 + 2 + 3 + 4 +   1 + 2 + 3 + 4 +  

E|-----------------|-----------------|-----------------|
B|-----------------|-----------------|-----------------|
G|-----------------|-----5-----5-----|-----7-----7-----|
D|-----4-----5-----|---5-----5-------|---7-----7-------|
A|---2-----2-------|-3-----3---------|-5-----5---------|
E|-0-----0---------|-----------------|-----------------|
   1 + 2 + 3 + 4 +   1 + 2 + 3 + 4 +   1 + 2 + 3 + 4 +  

E|-----------------|-----------------|
B|-----------------|-----------------|
G|-----2-----4-----|-----2-----4-----|
D|---0-----0-------|---0-----0-------|
A|-----------------|-----------------|
E|-3-----3---------|-3-----3---------|
   1 + 2 + 3 + 4 +   1 + 2 + 3 + 4 +   


[Prechorus]
E|-----------------|-----------------|-----------------|-----------------|
B|-----------------|-----------------|-----------------|-----------------|
G|-----------------|-----5-----5-----|-----2-----4-----|-----5-----5-----|
D|-----4-----5-----|---5-----5-------|---0-----0-------|---5-----5-------|
A|---2-----2-------|-3-----3---------|-----------------|-3-----3---------|
E|-0-----0---------|-----------------|-3-----3---------|-----------------|
   1 + 2 + 3 + 4 +   1 + 2 + 3 + 4 +   1 + 2 + 3 + 4 +   1 + 2 + 3 + 4 +   

[Chorus]
E|-----------------|-----------------|-----------------|   \
B|-----------------|-----------------|-----------------|    \
G|-----2-----4-----|-----2-----4-----|-----------------|     |
D|---0-----0-------|---0-----0-------|-----4-----5-----|     |
A|-----------------|-----------------|---2-----2-------|     |
E|-3-----3---------|-3-----3---------|-0-----0---------|     |
   1 + 2 + 3 + 4 +   1 + 2 + 3 + 4 +   1 + 2 + 3 + 4 +       |   x2
                                                             |
E|-----------------|-----------------|-----------------|     |
B|-----------------|-----------------|-----------------|     |
G|-----------------|-----5-----5-----|-----7-----7-----|     |
D|-----4-----5-----|---5-----5-------|---7-----7-------|     |
A|---2-----2-------|-3-----3---------|-5-----5---------|    /
E|-0-----0---------|-----------------|-----------------|   /
   1 + 2 + 3 + 4 +   1 + 2 + 3 + 4 +   1 + 2 + 3 + 4 +  

E|-----------------|-----------------|
B|-----------------|-----------------|
G|-----2-----4-----|-----2-----4-----|
D|---0-----0-------|---0-----0-------|
A|-----------------|-----------------|
E|-3-----3---------|-3-----3---------|
   1 + 2 + 3 + 4 +   1 + 2 + 3 + 4 +   

---------------------------------------------
          EASY CHORDS - CAPO ON 1ST FRET
---------------------------------------------

[Verse 1]
G
Sunrise with you on my chest
 G
No blinds in the place where I live
 Em
Daybreak open your eyes
   Em
'Cause this was only ever meant to be for one night
     C
Still, we're changing our minds here
 D
Be yours, be my dear
 G
So close with you on my lips
 G
Touch noses, feeling your breath
 Em
Push your heart and pull away, yeah
 Em
Be my summer in a winter day love
  C
I can't see one thing wrong
  D
Between the both of us
  G
Be mine, be mine, yeah
  G
Anytime, anytime

[Pre-Chorus]
 Em            C                          G                D
Ooh you know I've been alone for quite a while, haven't I
 D                   Em
I thought I knew it all
                      C
Found love but I was wrong
                   G
More times than enough
                    D
But since you came along

I'm thinking baby

[Chorus]
 G                                       Em
You are bringing out a different kind of me
  Em                               C             D
There's no safety net that's underneath, I'm free
  D
Falling all in
 G                                      Em
You fell for men who weren't how they appear
                                      C          D
Trapped up on a tightrope now we're here, we're free
                G
Falling all in you

[Verse 2]
  G
Fast forward a couple years, yeah
  G
Grown up in the place that we live
  Em
Make love, then we fight
  Em
Laugh 'cause it was only meant to be for one night baby
  C
I guess we can't control
   D
What's just not up to us
  G
Be mine, be mine, yeah

Anytime, anytime

[Pre-Chorus]
      Em       C                          G               D
Ooh you know I've been alone for quite a while, haven't I
D                    Em
I thought I knew it all
                      C
Found love but I was wrong
                  G
More times than enough
                    D
But since you came along

I'm thinking baby

[Chorus]
 G                                      Em
You are bringing out a different kind of me
  Em                            C            D
There's no safety net that's underneath, I'm free
  D
Falling all in
  G                                     Em
You fell for men who weren't how they appear
  Em                           C                 D
Trapped up on a tightrope now we're here, we're free
                G
Falling all in you

[Bridge]
  G                             Em
Every time I see you baby I get lost
         C                            G
If I'm dreaming, baby, please don't wake me up
   D                                      Em
Every night I'm with you I fall more in love
                        C
Now I'm laying by your side
                   G                    D
Everything feels right since you came along

I'm thinking baby

[Chorus]
 G                                             Em
You, yeah, are bringing out a different kind of me
                                 C             D
There's no safety net that's underneath, I'm free

Falling all in
 G                                      Em
You fell for men who weren't how they appear (Ooh)
   Em                           C                 D
Trapped up on a tightrope now we're here, we're free
                  G
Falling all in