3/10

DIFFICULTY

STANDARD TUNING

NO CAPO

Guitar Chord & Songwriting Cheat Sheet

GUITARZERO2HERO FREEBIE:

CHORD & SONGWRITING CHEAT SHEET

MASTER OVER 200+ CHORDS & MORE - YOU'LL ALSO RECEIVE THE LATEST NEWS & UPDATES FROM GUITARZERO2HERO

CHORD SHAPES

Welcome to this Fake Love Guitar Tutorial by BTS! This is an insanely catchy k-pop song. These guys are blowing up! This song requires no capo and is built off just 3 chords throughout the whole song which is really great for beginners.¬†In this lesson i’ll teach you the basic chords for the song as well as the guitar riffs you can hear throughout the song.

Enjoy! Like this #fakelove video by #bts and subscribe to the channel for more videos in the future!

-Dave Tran (Your online guitar teacher ūüėĀ)

--------------------------------------
      MAIN RIFF - NO CAPO
--------------------------------------

e|-----------------|-----------------|-----------------|-----------------|
B|-----------------|-----------------|-------10--------|-------8---------|
G|-------2---------|-------2---------|-----10----10----|-----9-----9-----|
D|-----0-----0-----|-----0-----------|-0---------------|-0---------------|
A|-1---------------|-3---------3-----|-----------------|-----------------|
E|-----------------|-----------------|-----------------|-----------------|
   1 + 2 + 3 + 4 +   1 + 2 + 3 + 4 +   1 + 2 + 3 + 4 +   1 + 2 + 3 + 4 +
   D   D U   U       D   D U   U       D   D U   U       D   D U   U

--------------------------------------
      'FAKE LOVE' RIFF - NO CAPO
--------------------------------------

e|-----------------|-----------------|-----------------|-----------------|
B|-----------------|-----------------|-----------------|-----------------|
G|-2-2-2-2-2-2-2-2-|-5-5-5-5-5-5-5-5-|-9-9-9-9-9-9-9-9-|-9-9-9-9-5-5-5-5-|
D|-----------------|-----------------|-----------------|-----------------|
A|-----------------|-----------------|-----------------|-----------------|
E|-----------------|-----------------|-----------------|-----------------|
   1 + 2 + 3 + 4 +   1 + 2 + 3 + 4 +   1 + 2 + 3 + 4 +   1 + 2 + 3 + 4 +

2018-06-07T11:04:26+00:00